  0
SECTION
  2
HEADER
  9
$ACADVER
  1
AC1015
  9
$ACADMAINTVER
 70
    20
  9
$DWGCODEPAGE
  3
ANSI_932
  9
$INSBASE
 10
0.0
 20
0.0
 30
0.0
  9
$EXTMIN
 10
-350.0274637248685
 20
-533.9823081977779
 30
-0.0015258207003583
  9
$EXTMAX
 10
550.0274679158201
 20
804.1680137850416
 30
0.0000000349246037
  9
$LIMMIN
 10
0.0
 20
0.0
  9
$LIMMAX
 10
0.0
 20
0.0
  9
$ORTHOMODE
 70
     0
  9
$REGENMODE
 70
     1
  9
$FILLMODE
 70
     1
  9
$QTEXTMODE
 70
     0
  9
$MIRRTEXT
 70
     1
  9
$LTSCALE
 40
25.4
  9
$ATTMODE
 70
     1
  9
$TEXTSIZE
 40
0.0
  9
$TRACEWID
 40
1.0
  9
$TEXTSTYLE
  7
STANDARD
  9
$CLAYER
  8
DATA
  9
$CELTYPE
  6
ByLayer
  9
$CECOLOR
 62
   256
  9
$CELTSCALE
 40
1.0
  9
$DISPSILH
 70
     0
  9
$DIMSCALE
 40
1.0
  9
$DIMASZ
 40
0.18
  9
$DIMEXO
 40
0.0625
  9
$DIMDLI
 40
0.38
  9
$DIMRND
 40
0.0
  9
$DIMDLE
 40
0.0
  9
$DIMEXE
 40
0.18
  9
$DIMTP
 40
0.0
  9
$DIMTM
 40
0.0
  9
$DIMTXT
 40
0.18
  9
$DIMCEN
 40
0.09
  9
$DIMTSZ
 40
0.0
  9
$DIMTOL
 70
     0
  9
$DIMLIM
 70
     0
  9
$DIMTIH
 70
     1
  9
$DIMTOH
 70
     1
  9
$DIMSE1
 70
     0
  9
$DIMSE2
 70
     0
  9
$DIMTAD
 70
     0
  9
$DIMZIN
 70
     0
  9
$DIMBLK
  1

  9
$DIMASO
 70
     1
  9
$DIMSHO
 70
     1
  9
$DIMPOST
  1

  9
$DIMAPOST
  1

  9
$DIMALT
 70
     0
  9
$DIMALTD
 70
     2
  9
$DIMALTF
 40
25.4
  9
$DIMLFAC
 40
1.0
  9
$DIMTOFL
 70
     0
  9
$DIMTVP
 40
0.0
  9
$DIMTIX
 70
     0
  9
$DIMSOXD
 70
     0
  9
$DIMSAH
 70
     0
  9
$DIMBLK1
  1

  9
$DIMBLK2
  1

  9
$DIMSTYLE
  2
STANDARD
  9
$DIMCLRD
 70
     0
  9
$DIMCLRE
 70
     0
  9
$DIMCLRT
 70
     0
  9
$DIMTFAC
 40
1.0
  9
$DIMGAP
 40
0.09
  9
$DIMJUST
 70
     0
  9
$DIMSD1
 70
     0
  9
$DIMSD2
 70
     0
  9
$DIMTOLJ
 70
     1
  9
$DIMTZIN
 70
     0
  9
$DIMALTZ
 70
     0
  9
$DIMALTTZ
 70
     0
  9
$DIMUPT
 70
     0
  9
$DIMDEC
 70
     4
  9
$DIMTDEC
 70
     4
  9
$DIMALTU
 70
     2
  9
$DIMALTTD
 70
     2
  9
$DIMTXSTY
  7
STANDARD
  9
$DIMAUNIT
 70
     0
  9
$DIMADEC
 70
     0
  9
$DIMALTRND
 40
0.0
  9
$DIMAZIN
 70
     0
  9
$DIMDSEP
 70
    46
  9
$DIMATFIT
 70
     3
  9
$DIMFRAC
 70
     0
  9
$DIMLDRBLK
  1

  9
$DIMLUNIT
 70
     2
  9
$DIMLWD
 70
    -2
  9
$DIMLWE
 70
    -2
  9
$DIMTMOVE
 70
     0
  9
$LUNITS
 70
     2
  9
$LUPREC
 70
     4
  9
$SKETCHINC
 40
0.1
  9
$FILLETRAD
 40
0.0
  9
$AUNITS
 70
     0
  9
$AUPREC
 70
     0
  9
$MENU
  1
acad
  9
$ELEVATION
 40
0.0
  9
$PELEVATION
 40
0.0
  9
$THICKNESS
 40
0.0
  9
$LIMCHECK
 70
     0
  9
$CHAMFERA
 40
0.0
  9
$CHAMFERB
 40
0.0
  9
$CHAMFERC
 40
0.0
  9
$CHAMFERD
 40
0.0
  9
$SKPOLY
 70
     0
  9
$TDCREATE
 40
2457823.470682871
  9
$TDUCREATE
 40
2457823.095682871
  9
$TDUPDATE
 40
2457823.481921296
  9
$TDUUPDATE
 40
2457823.106921296
  9
$TDINDWG
 40
0.0002893519
  9
$TDUSRTIMER
 40
0.0002893519
  9
$USRTIMER
 70
     1
  9
$ANGBASE
 50
0.0
  9
$ANGDIR
 70
     0
  9
$PDMODE
 70
     1
  9
$PDSIZE
 40
-2.0
  9
$PLINEWID
 40
0.0
  9
$SPLFRAME
 70
     0
  9
$SPLINETYPE
 70
     6
  9
$SPLINESEGS
 70
     8
  9
$HANDSEED
  5
36D
  9
$SURFTAB1
 70
     6
  9
$SURFTAB2
 70
     6
  9
$SURFTYPE
 70
     6
  9
$SURFU
 70
     6
  9
$SURFV
 70
     6
  9
$UCSBASE
  2

  9
$UCSNAME
  2

  9
$UCSORG
 10
0.0
 20
0.0
 30
0.0
  9
$UCSXDIR
 10
1.0
 20
0.0
 30
0.0
  9
$UCSYDIR
 10
0.0
 20
1.0
 30
0.0
  9
$UCSORTHOREF
  2

  9
$UCSORTHOVIEW
 70
     0
  9
$UCSORGTOP
 10
0.0
 20
0.0
 30
0.0
  9
$UCSORGBOTTOM
 10
0.0
 20
0.0
 30
0.0
  9
$UCSORGLEFT
 10
0.0
 20
0.0
 30
0.0
  9
$UCSORGRIGHT
 10
0.0
 20
0.0
 30
0.0
  9
$UCSORGFRONT
 10
0.0
 20
0.0
 30
0.0
  9
$UCSORGBACK
 10
0.0
 20
0.0
 30
0.0
  9
$PUCSBASE
  2

  9
$PUCSNAME
  2

  9
$PUCSORG
 10
0.0
 20
0.0
 30
0.0
  9
$PUCSXDIR
 10
1.0
 20
0.0
 30
0.0
  9
$PUCSYDIR
 10
0.0
 20
1.0
 30
0.0
  9
$PUCSORTHOREF
  2

  9
$PUCSORTHOVIEW
 70
     0
  9
$PUCSORGTOP
 10
0.0
 20
0.0
 30
0.0
  9
$PUCSORGBOTTOM
 10
0.0
 20
0.0
 30
0.0
  9
$PUCSORGLEFT
 10
0.0
 20
0.0
 30
0.0
  9
$PUCSORGRIGHT
 10
0.0
 20
0.0
 30
0.0
  9
$PUCSORGFRONT
 10
0.0
 20
0.0
 30
0.0
  9
$PUCSORGBACK
 10
0.0
 20
0.0
 30
0.0
  9
$USERI1
 70
     0
  9
$USERI2
 70
     0
  9
$USERI3
 70
     0
  9
$USERI4
 70
     0
  9
$USERI5
 70
     0
  9
$USERR1
 40
0.0
  9
$USERR2
 40
0.0
  9
$USERR3
 40
0.0
  9
$USERR4
 40
0.0
  9
$USERR5
 40
0.0
  9
$WORLDVIEW
 70
     1
  9
$SHADEDGE
 70
     3
  9
$SHADEDIF
 70
    70
  9
$TILEMODE
 70
     1
  9
$MAXACTVP
 70
    64
  9
$PINSBASE
 10
0.0
 20
0.0
 30
0.0
  9
$PLIMCHECK
 70
     0
  9
$PEXTMIN
 10
1.000000000000000E+20
 20
1.000000000000000E+20
 30
1.000000000000000E+20
  9
$PEXTMAX
 10
-1.000000000000000E+20
 20
-1.000000000000000E+20
 30
-1.000000000000000E+20
  9
$PLIMMIN
 10
0.0
 20
0.0
  9
$PLIMMAX
 10
12.0
 20
9.0
  9
$UNITMODE
 70
     0
  9
$VISRETAIN
 70
     0
  9
$PLINEGEN
 70
     1
  9
$PSLTSCALE
 70
     0
  9
$TREEDEPTH
 70
  3020
  9
$CMLSTYLE
  2
Standard
  9
$CMLJUST
 70
     0
  9
$CMLSCALE
 40
1.0
  9
$PROXYGRAPHICS
 70
     1
  9
$MEASUREMENT
 70
     0
  9
$CELWEIGHT
370
    -1
  9
$ENDCAPS
280
     0
  9
$JOINSTYLE
280
     0
  9
$LWDISPLAY
290
     0
  9
$INSUNITS
 70
     0
  9
$HYPERLINKBASE
  1

  9
$STYLESHEET
  1

  9
$XEDIT
290
     1
  9
$CEPSNTYPE
380
     0
  9
$PSTYLEMODE
290
     1
  9
$FINGERPRINTGUID
  2
{9678B6D9-8AC7-3E4A-8F1C-6CB0938A8DD1}
  9
$VERSIONGUID
  2
{F6BDFB21-F6EB-604C-9CCF-DDE04B929E22}
  9
$EXTNAMES
290
     1
  9
$PSVPSCALE
 40
0.0
  9
$OLESTARTUP
290
     0
  0
ENDSEC
  0
SECTION
  2
CLASSES
  0
CLASS
  1
ACDBDICTIONARYWDFLT
  2
AcDbDictionaryWithDefault
  3
ObjectDBX Classes
 90
        0
280
     0
281
     0
  0
CLASS
  1
MATERIAL
  2
AcDbMaterial
  3
ObjectDBX Classes
 90
     1153
280
     0
281
     0
  0
CLASS
  1
VISUALSTYLE
  2
AcDbVisualStyle
  3
ObjectDBX Classes
 90
     4095
280
     0
281
     0
  0
CLASS
  1
SCALE
  2
AcDbScale
  3
ObjectDBX Classes
 90
     1153
280
     0
281
     0
  0
CLASS
  1
TABLESTYLE
  2
AcDbTableStyle
  3
ObjectDBX Classes
 90
     4095
280
     0
281
     0
  0
CLASS
  1
MLEADERSTYLE
  2
AcDbMLeaderStyle
  3
ACDB_MLEADERSTYLE_CLASS
 90
     4095
280
     0
281
     0
  0
CLASS
  1
ACDBSECTIONVIEWSTYLE
  2
AcDbSectionViewStyle
  3
ObjectDBX Classes
 90
     1025
280
     0
281
     0
  0
CLASS
  1
ACDBDETAILVIEWSTYLE
  2
AcDbDetailViewStyle
  3
ObjectDBX Classes
 90
     1025
280
     0
281
     0
  0
CLASS
  1
DICTIONARYVAR
  2
AcDbDictionaryVar
  3
ObjectDBX Classes
 90
        0
280
     0
281
     0
  0
CLASS
  1
CELLSTYLEMAP
  2
AcDbCellStyleMap
  3
ObjectDBX Classes
 90
     1152
280
     0
281
     0
  0
CLASS
  1
ACDBPLACEHOLDER
  2
AcDbPlaceHolder
  3
ObjectDBX Classes
 90
        0
280
     0
281
     0
  0
CLASS
  1
LAYOUT
  2
AcDbLayout
  3
ObjectDBX Classes
 90
        0
280
     0
281
     0
  0
ENDSEC
  0
SECTION
  2
TABLES
  0
TABLE
  2
VPORT
  5
297
330
0
100
AcDbSymbolTable
 70
     1
  0
VPORT
  5
303
330
297
100
AcDbSymbolTableRecord
100
AcDbViewportTableRecord
  2
*ACTIVE
 70
     0
 10
0.0
 20
0.0
 11
1.0
 21
1.0
 12
100.0000020954758
 22
135.0928527936319
 13
0.0
 23
0.0
 14
1.0
 24
1.0
 15
0.0
 25
0.0
 16
0.0
 26
0.0
 36
1.0
 17
0.0
 27
0.0
 37
0.0
 40
1345.598282958605
 41
2.358402971216341
 42
50.0
 43
0.0
 44
0.0
 50
0.0
 51
0.0
 71
     0
 72
  2000
 73
     1
 74
     1
 75
     0
 76
     0
 77
     0
 78
     0
281
     0
 65
     1
110
0.0
120
0.0
130
0.0
111
1.0
121
0.0
131
0.0
112
0.0
122
1.0
132
0.0
 79
     0
146
0.0
1001
ACAD_NAV_VCDISPLAY
1070
     3
  0
ENDTAB
  0
TABLE
  2
LTYPE
  5
294
330
0
100
AcDbSymbolTable
 70
    11
  0
LTYPE
  5
2E9
330
294
100
AcDbSymbolTableRecord
100
AcDbLinetypeTableRecord
  2
ByBlock
 70
     0
  3

 72
    65
 73
     0
 40
0.0
  0
LTYPE
  5
2EA
330
294
100
AcDbSymbolTableRecord
100
AcDbLinetypeTableRecord
  2
ByLayer
 70
     0
  3

 72
    65
 73
     0
 40
0.0
  0
LTYPE
  5
2EB
330
294
100
AcDbSymbolTableRecord
100
AcDbLinetypeTableRecord
  2
CONTINUOUS
 70
     0
  3
Solid line
 72
    65
 73
     0
 40
0.0
  0
ENDTAB
  0
TABLE
  2
LAYER
  5
291
330
0
100
AcDbSymbolTable
 70
     5
  0
LAYER
  5
2E3
102
{ACAD_XDICTIONARY
360
317
102
}
330
291
100
AcDbSymbolTableRecord
100
AcDbLayerTableRecord
  2
0
 70
     0
 62
     7
  6
CONTINUOUS
370
    -3
390
29E
  0
LAYER
  5
302
102
{ACAD_XDICTIONARY
360
319
102
}
330
291
100
AcDbSymbolTableRecord
100
AcDbLayerTableRecord
  2
DATA
 70
     0
 62
     7
  6
CONTINUOUS
370
    -3
390
29E
  0
LAYER
  5
30E
102
{ACAD_XDICTIONARY
360
31B
102
}
330
291
100
AcDbSymbolTableRecord
100
AcDbLayerTableRecord
  2
HIBINO-BASE
 70
     0
 62
     7
  6
CONTINUOUS
370
    -3
390
29E
  0
LAYER
  5
30F
102
{ACAD_XDICTIONARY
360
31D
102
}
330
291
100
AcDbSymbolTableRecord
100
AcDbLayerTableRecord
  2
SPEC
 70
     0
 62
     7
  6
CONTINUOUS
370
    -3
390
29E
  0
LAYER
  5
310
102
{ACAD_XDICTIONARY
360
31F
102
}
330
291
100
AcDbSymbolTableRecord
100
AcDbLayerTableRecord
  2
DIMNSIONS
 70
     0
 62
     7
  6
CONTINUOUS
370
    -3
390
29E
  0
ENDTAB
  0
TABLE
  2
STYLE
  5
292
330
0
100
AcDbSymbolTable
 70
     3
  0
STYLE
  5
2E4
330
292
100
AcDbSymbolTableRecord
100
AcDbTextStyleTableRecord
  2
STANDARD
 70
     0
 40
0.0
 41
1.0
 50
0.0
 71
     0
 42
0.0
  3
txt
  4
BIGFONT.SHX
  0
ENDTAB
  0
TABLE
  2
VIEW
  5
295
330
0
100
AcDbSymbolTable
 70
     0
  0
ENDTAB
  0
TABLE
  2
UCS
  5
296
330
0
100
AcDbSymbolTable
 70
     0
  0
ENDTAB
  0
TABLE
  2
APPID
  5
298
330
0
100
AcDbSymbolTable
 70
     4
  0
APPID
  5
2E5
330
298
100
AcDbSymbolTableRecord
100
AcDbRegAppTableRecord
  2
ACAD
 70
     0
  0
APPID
  5
2EC
330
298
100
AcDbSymbolTableRecord
100
AcDbRegAppTableRecord
  2
AcadAnnotative
 70
     0
  0
APPID
  5
32B
330
298
100
AcDbSymbolTableRecord
100
AcDbRegAppTableRecord
  2
ACAD_NAV_VCDISPLAY
 70
     0
  0
APPID
  5
364
330
298
100
AcDbSymbolTableRecord
100
AcDbRegAppTableRecord
  2
ACAD_MLEADERVER
 70
     0
  0
ENDTAB
  0
TABLE
  2
DIMSTYLE
  5
299
330
0
100
AcDbSymbolTable
 70
     2
100
AcDbDimStyleTable
 71
     0
  0
DIMSTYLE
105
2E6
330
299
100
AcDbSymbolTableRecord
100
AcDbDimStyleTableRecord
  2
STANDARD
 70
     0
279
     2
340
2E4
  0
ENDTAB
  0
TABLE
  2
BLOCK_RECORD
  5
290
330
0
100
AcDbSymbolTable
 70
     0
  0
BLOCK_RECORD
  5
2FE
330
290
100
AcDbSymbolTableRecord
100
AcDbBlockTableRecord
  2
*Model_Space
340
301
  0
BLOCK_RECORD
  5
2FA
330
290
100
AcDbSymbolTableRecord
100
AcDbBlockTableRecord
  2
*Paper_Space
340
2FD
  0
ENDTAB
  0
ENDSEC
  0
SECTION
  2
BLOCKS
  0
BLOCK
  5
2FF
330
2FE
100
AcDbEntity
  8
0
100
AcDbBlockBegin
  2
*Model_Space
 70
     0
 10
0.0
 20
0.0
 30
0.0
  3
*Model_Space
  1

  0
ENDBLK
  5
300
330
2FE
100
AcDbEntity
  8
0
100
AcDbBlockEnd
  0
BLOCK
  5
2FB
330
2FA
100
AcDbEntity
 67
     1
  8
0
100
AcDbBlockBegin
  2
*Paper_Space
 70
     0
 10
0.0
 20
0.0
 30
0.0
  3
*Paper_Space
  1

  0
ENDBLK
  5
2FC
330
2FA
100
AcDbEntity
 67
     1
  8
0
100
AcDbBlockEnd
  0
ENDSEC
  0
SECTION
  2
ENTITIES
  0
LINE
  5
2C
330
2FE
100
AcDbEntity
  8
HIBINO-BASE
  6
Continuous
 62
     7
100
AcDbLine
 10
-350.0
 20
804.1272600000002
 30
0.0
 11
549.9999999999999
 21
804.1272600000002
 31
0.0
  0
LINE
  5
2D
330
2FE
100
AcDbEntity
  8
HIBINO-BASE
  6
Continuous
 62
     7
100
AcDbLine
 10
549.9999999999999
 20
-495.8727399999999
 30
0.0
 11
-350.0
 21
-495.8727399999999
 31
0.0
  0
LINE
  5
2E
330
2FE
100
AcDbEntity
  8
HIBINO-BASE
  6
Continuous
 62
     7
100
AcDbLine
 10
-350.0
 20
-495.8727399999999
 30
0.0
 11
-350.0
 21
804.1272600000002
 31
0.0
  0
TEXT
  5
2F
330
2FE
100
AcDbEntity
  8
HIBINO-BASE
 62
     7
100
AcDbText
 10
-314.0799999999999
 20
-527.9161289999998
 30
0.0
 40
18.00022089843749
  1
Hibino Corporation
 41
0.7
 11
-314.0799999999999
 21
-509.9159081015623
 31
0.0
100
AcDbText
 73
     3
  0
LINE
  5
30
330
2FE
100
AcDbEntity
  8
HIBINO-BASE
  6
Continuous
 62
     7
100
AcDbLine
 10
549.9999999999999
 20
804.1272600000002
 30
0.0
 11
549.9999999999999
 21
-495.8727399999999
 31
0.0
  0
LINE
  5
31
330
2FE
100
AcDbEntity
  8
HIBINO-BASE
  6
Continuous
 62
     7
100
AcDbLine
 10
100.0
 20
-383.3727399999999
 30
0.0
 11
549.9999999999999
 21
-383.3727399999999
 31
0.0
  0
LINE
  5
32
330
2FE
100
AcDbEntity
  8
HIBINO-BASE
  6
Continuous
 62
     7
100
AcDbLine
 10
100.0
 20
-495.8727399999999
 30
0.0
 11
100.0
 21
-383.3727399999999
 31
0.0
  0
TEXT
  5
33
330
2FE
100
AcDbEntity
  8
HIBINO-BASE
 62
     7
100
AcDbText
 10
104.5
 20
-395.9162066666666
 30
0.0
 40
8.144205729166666
  1
NOTE
 41
0.7
 11
104.5
 21
-387.7720009374999
 31
0.0
100
AcDbText
 73
     3
  0
LINE
  5
34
330
2FE
100
AcDbEntity
  8
HIBINO-BASE
  6
Continuous
 62
     7
100
AcDbLine
 10
275.0
 20
-495.8727399999999
 30
0.0
 11
275.0
 21
-383.3727399999999
 31
0.0
  0
TEXT
  5
35
330
2FE
100
AcDbEntity
  8
HIBINO-BASE
 62
     7
100
AcDbText
 10
279.5
 20
-395.9162066666666
 30
0.0
 40
8.144205729166666
  1
TITLE
 41
0.7
 11
279.5
 21
-387.7720009374999
 31
0.0
100
AcDbText
 73
     3
  0
TEXT
  5
36
330
2FE
100
AcDbEntity
  8
HIBINO-BASE
 62
     7
100
AcDbText
 10
350.34195
 20
-527.9161289999998
 30
0.0
 40
18.00022089843749
  1
ヒビノ株式会社
 41
0.7
 11
350.34195
 21
-509.9159081015623
 31
0.0
100
AcDbText
 73
     3
  0
LINE
  5
37
330
2FE
100
AcDbEntity
  8
HIBINO-BASE
  6
Continuous
 62
     7
100
AcDbLine
 10
100.0
 20
-445.8727399999999
 30
0.0
 11
549.9999999999999
 21
-445.8727399999999
 31
0.0
  0
TEXT
  5
38
330
2FE
100
AcDbEntity
  8
HIBINO-BASE
 62
     7
100
AcDbText
 10
342.0
 20
-458.1346066666666
 30
0.0
 40
8.144205729166666
  1
DRAWN
 41
0.7
 11
342.0
 21
-449.9904009374999
 31
0.0
100
AcDbText
 73
     3
  0
TEXT
  5
39
330
2FE
100
AcDbEntity
  8
HIBINO-BASE
 62
     7
100
AcDbText
 10
217.0
 20
-458.1346066666666
 30
0.0
 40
8.144205729166666
  1
DATE
 41
0.7
 11
217.0
 21
-449.9904009374999
 31
0.0
100
AcDbText
 73
     3
  0
TEXT
  5
3A
330
2FE
100
AcDbEntity
  8
HIBINO-BASE
 62
     7
100
AcDbText
 10
167.0
 20
-458.1346066666666
 30
0.0
 40
8.144205729166666
  1
SCALE
 41
0.7
 11
167.0
 21
-449.9904009374999
 31
0.0
100
AcDbText
 73
     3
  0
TEXT
  5
3B
330
2FE
100
AcDbEntity
  8
HIBINO-BASE
 62
     7
100
AcDbText
 10
279.5
 20
-458.1346066666666
 30
0.0
 40
8.144205729166666
  1
DESIGN
 41
0.7
 11
279.5
 21
-449.9904009374999
 31
0.0
100
AcDbText
 73
     3
  0
TEXT
  5
3C
330
2FE
100
AcDbEntity
  8
HIBINO-BASE
 62
     7
100
AcDbText
 10
467.0
 20
-458.1346066666666
 30
0.0
 40
8.144205729166666
  1
DRAWING NO.
 41
0.7
 11
467.0
 21
-449.9904009374999
 31
0.0
100
AcDbText
 73
     3
  0
TEXT
  5
3D
330
2FE
100
AcDbEntity
  8
HIBINO-BASE
 62
     7
100
AcDbText
 10
404.4999999999999
 20
-458.1346066666666
 30
0.0
 40
8.144205729166666
  1
CHECK
 41
0.7
 11
404.4999999999999
 21
-449.9904009374999
 31
0.0
100
AcDbText
 73
     3
  0
LINE
  5
3E
330
2FE
100
AcDbEntity
  8
HIBINO-BASE
  6
Continuous
 62
     7
100
AcDbLine
 10
171.875
 20
-489.6227399999999
 30
0.0
 11
190.625
 21
-470.8727399999999
 31
0.0
  0
TEXT
  5
3F
330
2FE
100
AcDbEntity
  8
HIBINO-BASE
 62
     7
100
AcDbText
 10
168.75
 20
-476.4174566666667
 30
0.0
 40
8.144205729166666
  1
1
 41
0.7
 11
168.75
 21
-468.2732509374999
 31
0.0
100
AcDbText
 73
     3
  0
LINE
  5
40
330
2FE
100
AcDbEntity
  8
HIBINO-BASE
  6
Continuous
 62
     7
100
AcDbLine
 10
162.5
 20
-495.8727399999999
 30
0.0
 11
162.5
 21
-445.8727399999999
 31
0.0
  0
LINE
  5
41
330
2FE
100
AcDbEntity
  8
HIBINO-BASE
  6
Continuous
 62
     7
100
AcDbLine
 10
212.5
 20
-495.8727399999999
 30
0.0
 11
212.5
 21
-445.8727399999999
 31
0.0
  0
LINE
  5
42
330
2FE
100
AcDbEntity
  8
HIBINO-BASE
  6
Continuous
 62
     7
100
AcDbLine
 10
337.5
 20
-445.8727399999999
 30
0.0
 11
337.5
 21
-495.8727399999999
 31
0.0
  0
LINE
  5
43
330
2FE
100
AcDbEntity
  8
HIBINO-BASE
  6
Continuous
 62
     7
100
AcDbLine
 10
462.5
 20
-445.8727399999999
 30
0.0
 11
462.5
 21
-495.8727399999999
 31
0.0
  0
LINE
  5
44
330
2FE
100
AcDbEntity
  8
HIBINO-BASE
  6
Continuous
 62
     7
100
AcDbLine
 10
400.0
 20
-495.8727399999999
 30
0.0
 11
400.0
 21
-445.8727399999999
 31
0.0
  0
TEXT
  5
45
330
2FE
100
AcDbEntity
  8
HIBINO-BASE
 62
     7
100
AcDbText
 10
216.7827
 20
-481.5545066666667
 30
0.0
 40
8.144205729166666
  1
'17.02.
 41
0.7
 11
216.7827
 21
-473.4103009374999
 31
0.0
100
AcDbText
 73
     3
  0
TEXT
  5
46
330
2FE
100
AcDbEntity
  8
HIBINO-BASE
 62
     7
100
AcDbText
 10
187.5
 20
-485.7924566666667
 30
0.0
 40
8.144205729166666
  1
5
 41
0.7
 11
187.5
 21
-477.6482509374999
 31
0.0
100
AcDbText
 73
     3
  0
TEXT
  5
47
330
2FE
100
AcDbEntity
  8
HIBINO-BASE
 62
     7
100
AcDbText
 10
345.0290500551731
 20
-481.5545066666667
 30
0.0
 40
8.144205729166666
  1
N.Sasaki
 41
0.7
 11
345.0290500551731
 21
-473.4103009374999
 31
0.0
100
AcDbText
 73
     3
  0
TEXT
  5
48
330
2FE
100
AcDbEntity
  8
HIBINO-BASE
 62
     7
100
AcDbText
 10
119.4166666666667
 20
-485.99274
 30
0.0
 40
16.28841145833333
  1
A4
 41
0.7
 11
119.4166666666667
 21
-469.7043285416667
 31
0.0
100
AcDbText
 73
     3
  0
TEXT
  5
49
330
2FE
100
AcDbEntity
  8
HIBINO-BASE
 62
     7
100
AcDbText
 10
104.7916666666666
 20
-458.9700149999999
 30
0.0
 40
8.144205729166666
  1
PAPER SIZE
 41
0.7
 11
104.7916666666666
 21
-450.8258092708333
 31
0.0
100
AcDbText
 73
     3
  0
TEXT
  5
4A
330
2FE
100
AcDbEntity
  8
SPEC
 62
     7
100
AcDbText
 10
-306.25
 20
761.0936099999999
 30
0.0
 40
12.21630859375
  1
仕様
 41
0.7
 11
-306.25
 21
773.3099185937499
 31
0.0
100
AcDbText
 73
     3
  0
LINE
  5
4B
330
2FE
100
AcDbEntity
  8
SPEC
  6
Continuous
 62
     7
100
AcDbLine
 10
-312.5
 20
754.1272599999999
 30
0.0
 11
425.0
 21
754.1272599999999
 31
0.0
  0
LINE
  5
4C
330
2FE
100
AcDbEntity
  8
SPEC
  6
Continuous
 62
     7
100
AcDbLine
 10
-312.5
 20
716.6272599999999
 30
0.0
 11
425.0
 21
716.6272599999999
 31
0.0
  0
LINE
  5
4D
330
2FE
100
AcDbEntity
  8
SPEC
  6
Continuous
 62
     7
100
AcDbLine
 10
-312.5
 20
679.1272599999999
 30
0.0
 11
425.0
 21
679.1272599999999
 31
0.0
  0
LINE
  5
4E
330
2FE
100
AcDbEntity
  8
SPEC
  6
Continuous
 62
     7
100
AcDbLine
 10
-312.5
 20
697.8772599999999
 30
0.0
 11
425.0
 21
697.8772599999999
 31
0.0
  0
LINE
  5
4F
330
2FE
100
AcDbEntity
  8
SPEC
  6
Continuous
 62
     7
100
AcDbLine
 10
-312.5
 20
547.87726
 30
0.0
 11
425.0
 21
547.87726
 31
0.0
  0
LINE
  5
50
330
2FE
100
AcDbEntity
  8
SPEC
  6
Continuous
 62
     7
100
AcDbLine
 10
-312.5
 20
529.12726
 30
0.0
 11
425.0
 21
529.12726
 31
0.0
  0
LINE
  5
51
330
2FE
100
AcDbEntity
  8
SPEC
  6
Continuous
 62
     7
100
AcDbLine
 10
-312.5
 20
754.1272599999999
 30
0.0
 11
-312.5
 21
510.3772599999998
 31
0.0
  0
LINE
  5
52
330
2FE
100
AcDbEntity
  8
SPEC
  6
Continuous
 62
     7
100
AcDbLine
 10
-112.5
 20
754.1272599999999
 30
0.0
 11
-112.5
 21
510.3772599999998
 31
0.0
  0
LINE
  5
53
330
2FE
100
AcDbEntity
  8
SPEC
  6
Continuous
 62
     7
100
AcDbLine
 10
425.0
 20
754.1272599999999
 30
0.0
 11
425.0
 21
510.3772599999998
 31
0.0
  0
LINE
  5
54
330
2FE
100
AcDbEntity
  8
SPEC
  6
Continuous
 62
     7
100
AcDbLine
 10
-312.5
 20
660.3772599999999
 30
0.0
 11
425.0
 21
660.3772599999999
 31
0.0
  0
LINE
  5
55
330
2FE
100
AcDbEntity
  8
SPEC
  6
Continuous
 62
     7
100
AcDbLine
 10
-150.0
 20
622.8772599999999
 30
0.0
 11
425.0
 21
622.8772599999999
 31
0.0
  0
LINE
  5
56
330
2FE
100
AcDbEntity
  8
SPEC
  6
Continuous
 62
     7
100
AcDbLine
 10
-312.5
 20
641.62726
 30
0.0
 11
425.0
 21
641.62726
 31
0.0
  0
LINE
  5
57
330
2FE
100
AcDbEntity
  8
SPEC
  6
Continuous
 62
     7
100
AcDbLine
 10
-312.5
 20
604.1272599999999
 30
0.0
 11
425.0
 21
604.1272599999999
 31
0.0
  0
LINE
  5
58
330
2FE
100
AcDbEntity
  8
SPEC
  6
Continuous
 62
     7
100
AcDbLine
 10
-150.0
 20
585.3772599999998
 30
0.0
 11
425.0
 21
585.3772599999998
 31
0.0
  0
LINE
  5
59
330
2FE
100
AcDbEntity
  8
SPEC
  6
Continuous
 62
     7
100
AcDbLine
 10
-312.5
 20
566.6272599999998
 30
0.0
 11
425.0
 21
566.6272599999998
 31
0.0
  0
LINE
  5
5A
330
2FE
100
AcDbEntity
  8
SPEC
  6
Continuous
 62
     7
100
AcDbLine
 10
-312.5
 20
735.3772599999999
 30
0.0
 11
425.0
 21
735.3772599999999
 31
0.0
  0
TEXT
  5
5B
330
2FE
100
AcDbEntity
  8
SPEC
 62
     7
100
AcDbText
 10
-108.0
 20
514.3168488888888
 30
0.0
 40
9.501573350694446
  1
7.3kg
 41
0.7
 11
-108.0
 21
523.8184222395833
 31
0.0
100
AcDbText
 73
     3
  0
TEXT
  5
5C
330
2FE
100
AcDbEntity
  8
SPEC
 62
     7
100
AcDbText
 10
-108.0
 20
739.3168488888886
 30
0.0
 40
9.501573350694446
  1
34Hz～18kHz
 41
0.7
 11
-108.0
 21
748.818422239583
 31
0.0
100
AcDbText
 73
     3
  0
TEXT
  5
5D
330
2FE
100
AcDbEntity
  8
SPEC
 62
     7
100
AcDbText
 10
-308.0
 20
739.3168488888886
 30
0.0
 40
9.501573350694446
  1
周波数レンジ(-10dB)
 41
0.7
 11
-308.0
 21
748.818422239583
 31
0.0
100
AcDbText
 73
     3
  0
TEXT
  5
5E
330
2FE
100
AcDbEntity
  8
SPEC
 62
     7
100
AcDbText
 10
-308.0
 20
720.5668488888886
 30
0.0
 40
9.501573350694446
  1
カバレージ角(1～16kHz平均)
 41
0.7
 11
-308.0
 21
730.068422239583
 31
0.0
100
AcDbText
 73
     3
  0
TEXT
  5
5F
330
2FE
100
AcDbEntity
  8
SPEC
 62
     7
100
AcDbText
 10
-108.0
 20
720.5668488888886
 30
0.0
 40
9.501573350694446
  1
90°
 41
0.7
 11
-108.0
 21
730.068422239583
 31
0.0
100
AcDbText
 73
     3
  0
TEXT
  5
60
330
2FE
100
AcDbEntity
  8
SPEC
 62
     7
100
AcDbText
 10
-308.0
 20
701.8168488888886
 30
0.0
 40
9.501573350694446
  1
許容入力
 41
0.7
 11
-308.0
 21
711.3184222395831
 31
0.0
100
AcDbText
 73
     3
  0
TEXT
  5
61
330
2FE
100
AcDbEntity
  8
SPEC
 62
     7
100
AcDbText
 10
-308.0
 20
683.0668488888886
 30
0.0
 40
9.501573350694446
  1
感度(1W、1m)
 41
0.7
 11
-308.0
 21
692.5684222395831
 31
0.0
100
AcDbText
 73
     3
  0
TEXT
  5
62
330
2FE
100
AcDbEntity
  8
SPEC
 62
     7
100
AcDbText
 10
-108.0
 20
683.0668488888886
 30
0.0
 40
9.501573350694446
  1
94dB SPL
 41
0.7
 11
-108.0
 21
692.5684222395831
 31
0.0
100
AcDbText
 73
     3
  0
TEXT
  5
63
330
2FE
100
AcDbEntity
  8
SPEC
 62
     7
100
AcDbText
 10
-308.0
 20
664.3168488888886
 30
0.0
 40
9.501573350694446
  1
最大音圧レベル
 41
0.7
 11
-308.0
 21
673.8184222395831
 31
0.0
100
AcDbText
 73
     3
  0
TEXT
  5
64
330
2FE
100
AcDbEntity
  8
SPEC
 62
     7
100
AcDbText
 10
-108.0
 20
664.3168488888886
 30
0.0
 40
9.501573350694446
  1
118dB SPL
 41
0.7
 11
-108.0
 21
673.8184222395831
 31
0.0
100
AcDbText
 73
     3
  0
TEXT
  5
65
330
2FE
100
AcDbEntity
  8
SPEC
 62
     7
100
AcDbText
 10
-308.0
 20
645.5668488888886
 30
0.0
 40
9.501573350694446
  1
公称インピーダンス
 41
0.7
 11
-308.0
 21
655.0684222395831
 31
0.0
100
AcDbText
 73
     3
  0
TEXT
  5
66
330
2FE
100
AcDbEntity
  8
SPEC
 62
     7
100
AcDbText
 10
-308.0
 20
589.3168488888888
 30
0.0
 40
9.501573350694446
  1
ドライバー構成
 41
0.7
 11
-308.0
 21
598.8184222395833
 31
0.0
100
AcDbText
 73
     3
  0
TEXT
  5
67
330
2FE
100
AcDbEntity
  8
SPEC
 62
     7
100
AcDbText
 10
-108.0
 20
589.3168488888888
 30
0.0
 40
9.501573350694446
  1
300mm
 41
0.7
 11
-108.0
 21
598.8184222395833
 31
0.0
100
AcDbText
 73
     3
  0
TEXT
  5
68
330
2FE
100
AcDbEntity
  8
SPEC
 62
     7
100
AcDbText
 10
-308.0
 20
533.0668488888888
 30
0.0
 40
9.501573350694446
  1
寸法(W×H×D)
 41
0.7
 11
-308.0
 21
542.5684222395833
 31
0.0
100
AcDbText
 73
     3
  0
TEXT
  5
69
330
2FE
100
AcDbEntity
  8
SPEC
 62
     7
100
AcDbText
 10
-108.0
 20
533.0668488888888
 30
0.0
 40
9.501573350694446
  1
366×366×233mm
 41
0.7
 11
-108.0
 21
542.5684222395833
 31
0.0
100
AcDbText
 73
     3
  0
TEXT
  5
6A
330
2FE
100
AcDbEntity
  8
SPEC
 62
     7
100
AcDbText
 10
-308.0
 20
514.3168488888887
 30
0.0
 40
9.501573350694446
  1
質量
 41
0.7
 11
-308.0
 21
523.8184222395832
 31
0.0
100
AcDbText
 73
     3
  0
TEXT
  5
6B
330
2FE
100
AcDbEntity
  8
SPEC
 62
     7
100
AcDbText
 10
-308.0
 20
551.8168488888887
 30
0.0
 40
9.501573350694446
  1
クロスオーバー周波数
 41
0.7
 11
-308.0
 21
561.3184222395832
 31
0.0
100
AcDbText
 73
     3
  0
TEXT
  5
6C
330
2FE
100
AcDbEntity
  8
SPEC
 62
     7
100
AcDbText
 10
-108.0
 20
551.8168488888888
 30
0.0
 40
9.501573350694446
  1
1.8kHz
 41
0.7
 11
-108.0
 21
561.3184222395833
 31
0.0
100
AcDbText
 73
     3
  0
TEXT
  5
6D
330
2FE
100
AcDbEntity
  8
SPEC
 62
     7
100
AcDbText
 10
-108.0
 20
570.5668488888888
 30
0.0
 40
9.501573350694446
  1
25mm
 41
0.7
 11
-108.0
 21
580.0684222395833
 31
0.0
100
AcDbText
 73
     3
  0
TEXT
  5
6E
330
2FE
100
AcDbEntity
  8
SPEC
 62
     7
100
AcDbText
 10
-145.5
 20
570.5668488888888
 30
0.0
 40
9.501573350694446
  1
HF
 41
0.7
 11
-145.5
 21
580.0684222395833
 31
0.0
100
AcDbText
 73
     3
  0
TEXT
  5
6F
330
2FE
100
AcDbEntity
  8
SPEC
 62
     7
100
AcDbText
 10
-145.5
 20
589.3168488888888
 30
0.0
 40
9.501573350694446
  1
LF
 41
0.7
 11
-145.5
 21
598.8184222395833
 31
0.0
100
AcDbText
 73
     3
  0
LINE
  5
70
330
2FE
100
AcDbEntity
  8
SPEC
  6
Continuous
 62
     7
100
AcDbLine
 10
-312.5
 20
510.3772599999999
 30
0.0
 11
425.0
 21
510.3772599999999
 31
0.0
  0
LINE
  5
71
330
2FE
100
AcDbEntity
  8
SPEC
  6
Continuous
 62
     7
100
AcDbLine
 10
-150.0
 20
641.62726
 30
0.0
 11
-150.0
 21
566.6272599999998
 31
0.0
  0
TEXT
  5
72
330
2FE
100
AcDbEntity
  8
SPEC
 62
     7
100
AcDbText
 10
-308.0
 20
626.8168488888887
 30
0.0
 40
9.501573350694446
  1
トランス・タップ
 41
0.7
 11
-308.0
 21
636.3184222395832
 31
0.0
100
AcDbText
 73
     3
  0
TEXT
  5
73
330
2FE
100
AcDbEntity
  8
SPEC
 62
     7
100
AcDbText
 10
-145.5
 20
608.0668488888889
 30
0.0
 40
9.501573350694446
  1
70V
 41
0.7
 11
-145.5
 21
617.5684222395833
 31
0.0
100
AcDbText
 73
     3
  0
TEXT
  5
74
330
2FE
100
AcDbEntity
  8
SPEC
 62
     7
100
AcDbText
 10
-145.5
 20
626.8168488888887
 30
0.0
 40
9.501573350694446
  1
100V
 41
0.7
 11
-145.5
 21
636.3184222395832
 31
0.0
100
AcDbText
 73
     3
  0
TEXT
  5
75
330
2FE
100
AcDbEntity
  8
SPEC
 62
     7
100
AcDbText
 10
-108.0
 20
645.5668488888886
 30
0.0
 40
9.501573350694446
  1
8Ω
 41
0.7
 11
-108.0
 21
655.0684222395831
 31
0.0
100
AcDbText
 73
     3
  0
TEXT
  5
76
330
2FE
100
AcDbEntity
  8
SPEC
 62
     7
100
AcDbText
 10
-108.0
 20
626.8168488888887
 30
0.0
 40
9.501573350694446
  1
─
 41
0.7
 11
-108.0
 21
636.3184222395832
 31
0.0
100
AcDbText
 73
     3
  0
TEXT
  5
77
330
2FE
100
AcDbEntity
  8
SPEC
 62
     7
100
AcDbText
 10
-108.0
 20
608.0668488888887
 30
0.0
 40
9.501573350694446
  1
─
 41
0.7
 11
-108.0
 21
617.5684222395832
 31
0.0
100
AcDbText
 73
     3
  0
TEXT
  5
78
330
2FE
100
AcDbEntity
  8
SPEC
 62
     7
100
AcDbText
 10
-308.0
 20
701.8168488888886
 30
0.0
 40
9.501573350694446
  1
許容入力(プログラム/ピンク)※
 41
0.7
 11
-308.0
 21
711.3184222395831
 31
0.0
100
AcDbText
 73
     3
  0
TEXT
  5
79
330
2FE
100
AcDbEntity
  8
SPEC
 62
     7
100
AcDbText
 10
-300.0
 20
488.7890924999998
 30
0.0
 40
9.501573350694446
  1
※100時間、ピンクノイズ:IEC/クレストファクター6dB
 41
0.7
 11
-300.0
 21
498.2906658506943
 31
0.0
100
AcDbText
 73
     3
  0
TEXT
  5
7A
330
2FE
100
AcDbEntity
  8
SPEC
 62
     7
100
AcDbText
 10
-108.0
 20
701.8168488888886
 30
0.0
 40
9.501573350694446
  1
400W/200W
 41
0.7
 11
-108.0
 21
711.3184222395831
 31
0.0
100
AcDbText
 73
     3
  0
TEXT
  5
7B
330
2FE
100
AcDbEntity
  8
DIMNSIONS
 62
     7
100
AcDbText
 10
-0.0000000000000149
 20
-434.5252900000001
 30
0.0
 40
12.21630859375
  1
(単位：mm)
 41
0.7
 11
-0.0000000000000142
 21
-422.30898140625
 31
0.0
100
AcDbText
 73
     3
  0
LINE
  5
7C
330
2FE
100
AcDbEntity
  8
DIMNSIONS
  6
Continuous
 62
     7
100
AcDbLine
 10
-187.8800000000001
 20
232.88
 30
0.0
 11
-260.0
 21
232.88
 31
0.0
  0
LINE
  5
7D
330
2FE
100
AcDbEntity
  8
DIMNSIONS
  6
Continuous
 62
     7
100
AcDbLine
 10
-187.8800000000001
 20
-132.88
 30
0.0
 11
-260.0
 21
-132.88
 31
0.0
  0
LINE
  5
7E
330
2FE
100
AcDbEntity
  8
DIMNSIONS
  6
Continuous
 62
     7
100
AcDbLine
 10
-250.0
 20
232.88
 30
0.0
 11
-250.0
 21
-132.88
 31
0.0
  0
LINE
  5
7F
330
2FE
100
AcDbEntity
  8
DIMNSIONS
  6
Continuous
 62
     7
100
AcDbLine
 10
-250.0
 20
232.88
 30
0.0
 11
-246.6498010242488
 21
220.3768872070313
 31
0.0
  0
LINE
  5
80
330
2FE
100
AcDbEntity
  8
DIMNSIONS
  6
Continuous
 62
     7
100
AcDbLine
 10
-250.0
 20
232.88
 30
0.0
 11
-253.3501989757512
 21
220.3768872070313
 31
0.0
  0
LINE
  5
81
330
2FE
100
AcDbEntity
  8
DIMNSIONS
  6
Continuous
 62
     7
100
AcDbLine
 10
-250.0
 20
-132.88
 30
0.0
 11
-253.3501989757512
 21
-120.3768872070312
 31
0.0
  0
LINE
  5
82
330
2FE
100
AcDbEntity
  8
DIMNSIONS
  6
Continuous
 62
     7
100
AcDbLine
 10
-250.0
 20
-132.88
 30
0.0
 11
-246.6498010242488
 21
-120.3768872070312
 31
0.0
  0
TEXT
  5
83
330
2FE
100
AcDbEntity
  8
DIMNSIONS
 62
     7
100
AcDbText
 10
-254.4694444444445
 20
36.77083333333333
 30
0.0
 40
13.57367621527778
  1
366
 50
90.0
 41
0.7
 11
-268.0431206597223
 21
36.77083333333333
 31
0.0
100
AcDbText
 73
     3
  0
LINE
  5
84
330
2FE
100
AcDbEntity
  8
DIMNSIONS
  6
Continuous
 62
     7
100
AcDbLine
 10
-181.9110000000001
 20
226.9110000000001
 30
0.0
 11
-235.0
 21
226.9110000000001
 31
0.0
  0
LINE
  5
85
330
2FE
100
AcDbEntity
  8
DIMNSIONS
  6
Continuous
 62
     7
100
AcDbLine
 10
-181.9110000000001
 20
-126.9109999999999
 30
0.0
 11
-235.0
 21
-126.9109999999999
 31
0.0
  0
LINE
  5
86
330
2FE
100
AcDbEntity
  8
DIMNSIONS
  6
Continuous
 62
     7
100
AcDbLine
 10
-225.0
 20
226.9110000000001
 30
0.0
 11
-225.0
 21
-126.9109999999999
 31
0.0
  0
LINE
  5
87
330
2FE
100
AcDbEntity
  8
DIMNSIONS
  6
Continuous
 62
     7
100
AcDbLine
 10
-225.0
 20
226.9110000000001
 30
0.0
 11
-221.6498010242488
 21
214.4078872070313
 31
0.0
  0
LINE
  5
88
330
2FE
100
AcDbEntity
  8
DIMNSIONS
  6
Continuous
 62
     7
100
AcDbLine
 10
-225.0
 20
226.9110000000001
 30
0.0
 11
-228.3501989757512
 21
214.4078872070313
 31
0.0
  0
LINE
  5
89
330
2FE
100
AcDbEntity
  8
DIMNSIONS
  6
Continuous
 62
     7
100
AcDbLine
 10
-225.0
 20
-126.9109999999999
 30
0.0
 11
-228.3501989757512
 21
-114.4078872070312
 31
0.0
  0
LINE
  5
8A
330
2FE
100
AcDbEntity
  8
DIMNSIONS
  6
Continuous
 62
     7
100
AcDbLine
 10
-225.0
 20
-126.9109999999999
 30
0.0
 11
-221.6498010242488
 21
-114.4078872070312
 31
0.0
  0
TEXT
  5
8B
330
2FE
100
AcDbEntity
  8
DIMNSIONS
 62
     7
100
AcDbText
 10
-229.4694444444445
 20
36.77083333333339
 30
0.0
 40
13.57367621527778
  1
354
 50
90.0
 41
0.7
 11
-243.0431206597223
 21
36.77083333333339
 31
0.0
100
AcDbText
 73
     3
  0
LINE
  5
8C
330
2FE
100
AcDbEntity
  8
DIMNSIONS
  6
Continuous
 62
     7
100
AcDbLine
 10
-170.4810000000002
 20
180.8099999999999
 30
0.0
 11
-210.0
 21
180.8099999999999
 31
0.0
  0
LINE
  5
8D
330
2FE
100
AcDbEntity
  8
DIMNSIONS
  6
Continuous
 62
     7
100
AcDbLine
 10
-170.4810000000002
 20
-80.81000000000008
 30
0.0
 11
-210.0
 21
-80.81000000000008
 31
0.0
  0
LINE
  5
8E
330
2FE
100
AcDbEntity
  8
DIMNSIONS
  6
Continuous
 62
     7
100
AcDbLine
 10
-200.0
 20
180.8099999999999
 30
0.0
 11
-200.0
 21
-80.81000000000008
 31
0.0
  0
LINE
  5
8F
330
2FE
100
AcDbEntity
  8
DIMNSIONS
  6
Continuous
 62
     7
100
AcDbLine
 10
-200.0
 20
180.8099999999999
 30
0.0
 11
-196.6498010242488
 21
168.3068872070312
 31
0.0
  0
LINE
  5
90
330
2FE
100
AcDbEntity
  8
DIMNSIONS
  6
Continuous
 62
     7
100
AcDbLine
 10
-200.0
 20
180.8099999999999
 30
0.0
 11
-203.3501989757512
 21
168.3068872070312
 31
0.0
  0
LINE
  5
91
330
2FE
100
AcDbEntity
  8
DIMNSIONS
  6
Continuous
 62
     7
100
AcDbLine
 10
-200.0
 20
-80.81000000000008
 30
0.0
 11
-203.3501989757512
 21
-68.30688720703129
 31
0.0
  0
LINE
  5
92
330
2FE
100
AcDbEntity
  8
DIMNSIONS
  6
Continuous
 62
     7
100
AcDbLine
 10
-200.0
 20
-80.81000000000008
 30
0.0
 11
-196.6498010242488
 21
-68.30688720703129
 31
0.0
  0
TEXT
  5
93
330
2FE
100
AcDbEntity
  8
DIMNSIONS
 62
     7
100
AcDbText
 10
-204.4694444444444
 20
27.95138888888883
 30
0.0
 40
13.57367621527778
  1
261.6
 50
90.0
 41
0.7
 11
-218.0431206597222
 21
27.95138888888883
 31
0.0
100
AcDbText
 73
     3
  0
LINE
  5
94
330
2FE
100
AcDbEntity
  8
DIMNSIONS
  6
Continuous
 62
     7
100
AcDbLine
 10
182.8800000000001
 20
237.88
 30
0.0
 11
182.8800000000001
 21
310.0
 31
0.0
  0
LINE
  5
95
330
2FE
100
AcDbEntity
  8
DIMNSIONS
  6
Continuous
 62
     7
100
AcDbLine
 10
-182.8800000000001
 20
237.88
 30
0.0
 11
-182.8800000000001
 21
310.0
 31
0.0
  0
LINE
  5
96
330
2FE
100
AcDbEntity
  8
DIMNSIONS
  6
Continuous
 62
     7
100
AcDbLine
 10
182.8800000000001
 20
300.0
 30
0.0
 11
-182.8800000000001
 21
300.0
 31
0.0
  0
LINE
  5
97
330
2FE
100
AcDbEntity
  8
DIMNSIONS
  6
Continuous
 62
     7
100
AcDbLine
 10
182.8800000000001
 20
300.0
 30
0.0
 11
170.3768872070314
 21
296.6498010242487
 31
0.0
  0
LINE
  5
98
330
2FE
100
AcDbEntity
  8
DIMNSIONS
  6
Continuous
 62
     7
100
AcDbLine
 10
182.8800000000001
 20
300.0
 30
0.0
 11
170.3768872070314
 21
303.3501989757513
 31
0.0
  0
LINE
  5
99
330
2FE
100
AcDbEntity
  8
DIMNSIONS
  6
Continuous
 62
     7
100
AcDbLine
 10
-182.8800000000001
 20
300.0
 30
0.0
 11
-170.3768872070314
 21
303.3501989757513
 31
0.0
  0
LINE
  5
9A
330
2FE
100
AcDbEntity
  8
DIMNSIONS
  6
Continuous
 62
     7
100
AcDbLine
 10
-182.8800000000001
 20
300.0
 30
0.0
 11
-170.3768872070314
 21
296.6498010242487
 31
0.0
  0
TEXT
  5
9B
330
2FE
100
AcDbEntity
  8
DIMNSIONS
 62
     7
100
AcDbText
 10
-13.22916666666667
 20
304.4694444444444
 30
0.0
 40
13.57367621527778
  1
366
 41
0.7
 11
-13.22916666666667
 21
318.0431206597222
 31
0.0
100
AcDbText
 73
     3
  0
LINE
  5
9C
330
2FE
100
AcDbEntity
  8
DIMNSIONS
  6
Continuous
 62
     7
100
AcDbLine
 10
-176.9110000000001
 20
231.9110000000001
 30
0.0
 11
-176.9110000000001
 21
285.0
 31
0.0
  0
LINE
  5
9D
330
2FE
100
AcDbEntity
  8
DIMNSIONS
  6
Continuous
 62
     7
100
AcDbLine
 10
176.9110000000001
 20
231.9110000000001
 30
0.0
 11
176.9110000000001
 21
285.0
 31
0.0
  0
LINE
  5
9E
330
2FE
100
AcDbEntity
  8
DIMNSIONS
  6
Continuous
 62
     7
100
AcDbLine
 10
-176.9110000000001
 20
275.0
 30
0.0
 11
176.9110000000001
 21
275.0
 31
0.0
  0
LINE
  5
9F
330
2FE
100
AcDbEntity
  8
DIMNSIONS
  6
Continuous
 62
     7
100
AcDbLine
 10
-176.9110000000001
 20
275.0
 30
0.0
 11
-164.4078872070313
 21
278.3501989757513
 31
0.0
  0
LINE
  5
A0
330
2FE
100
AcDbEntity
  8
DIMNSIONS
  6
Continuous
 62
     7
100
AcDbLine
 10
-176.9110000000001
 20
275.0
 30
0.0
 11
-164.4078872070313
 21
271.6498010242487
 31
0.0
  0
LINE
  5
A1
330
2FE
100
AcDbEntity
  8
DIMNSIONS
  6
Continuous
 62
     7
100
AcDbLine
 10
176.9110000000001
 20
275.0
 30
0.0
 11
164.4078872070313
 21
271.6498010242487
 31
0.0
  0
LINE
  5
A2
330
2FE
100
AcDbEntity
  8
DIMNSIONS
  6
Continuous
 62
     7
100
AcDbLine
 10
176.9110000000001
 20
275.0
 30
0.0
 11
164.4078872070313
 21
278.3501989757513
 31
0.0
  0
TEXT
  5
A3
330
2FE
100
AcDbEntity
  8
DIMNSIONS
 62
     7
100
AcDbText
 10
-13.22916666666667
 20
279.4694444444444
 30
0.0
 40
13.57367621527778
  1
354
 41
0.7
 11
-13.22916666666667
 21
293.0431206597221
 31
0.0
100
AcDbText
 73
     3
  0
LINE
  5
A4
330
2FE
100
AcDbEntity
  8
DIMNSIONS
  6
Continuous
 62
     7
100
AcDbLine
 10
244.5
 20
237.88
 30
0.0
 11
244.5
 21
285.0
 31
0.0
  0
LINE
  5
A5
330
2FE
100
AcDbEntity
  8
DIMNSIONS
  6
Continuous
 62
     7
100
AcDbLine
 10
470.5
 20
147.0
 30
0.0
 11
470.5
 21
285.0
 31
0.0
  0
LINE
  5
A6
330
2FE
100
AcDbEntity
  8
DIMNSIONS
  6
Continuous
 62
     7
100
AcDbLine
 10
244.5
 20
275.0
 30
0.0
 11
470.5
 21
275.0
 31
0.0
  0
LINE
  5
A7
330
2FE
100
AcDbEntity
  8
DIMNSIONS
  6
Continuous
 62
     7
100
AcDbLine
 10
244.5
 20
275.0
 30
0.0
 11
257.0031127929687
 21
278.3501989757513
 31
0.0
  0
LINE
  5
A8
330
2FE
100
AcDbEntity
  8
DIMNSIONS
  6
Continuous
 62
     7
100
AcDbLine
 10
244.5
 20
275.0
 30
0.0
 11
257.0031127929687
 21
271.6498010242487
 31
0.0
  0
LINE
  5
A9
330
2FE
100
AcDbEntity
  8
DIMNSIONS
  6
Continuous
 62
     7
100
AcDbLine
 10
470.5
 20
275.0
 30
0.0
 11
457.9968872070312
 21
271.6498010242487
 31
0.0
  0
LINE
  5
AA
330
2FE
100
AcDbEntity
  8
DIMNSIONS
  6
Continuous
 62
     7
100
AcDbLine
 10
470.5
 20
275.0
 30
0.0
 11
457.9968872070312
 21
278.3501989757513
 31
0.0
  0
TEXT
  5
AB
330
2FE
100
AcDbEntity
  8
DIMNSIONS
 62
     7
100
AcDbText
 10
344.2708333333333
 20
279.4694444444444
 30
0.0
 40
13.57367621527778
  1
226
 41
0.7
 11
344.2708333333333
 21
293.0431206597221
 31
0.0
100
AcDbText
 73
     3
  0
LINE
  5
AC
330
2FE
100
AcDbEntity
  8
DIMNSIONS
  6
Continuous
 62
     7
100
AcDbLine
 10
244.5
 20
237.88
 30
0.0
 11
244.5
 21
260.0
 31
0.0
  0
LINE
  5
AD
330
2FE
100
AcDbEntity
  8
DIMNSIONS
  6
Continuous
 62
     7
100
AcDbLine
 10
434.4999999999999
 20
62.0
 30
0.0
 11
434.4999999999999
 21
260.0
 31
0.0
  0
LINE
  5
AE
330
2FE
100
AcDbEntity
  8
DIMNSIONS
  6
Continuous
 62
     7
100
AcDbLine
 10
244.5
 20
250.0
 30
0.0
 11
434.4999999999999
 21
250.0
 31
0.0
  0
LINE
  5
AF
330
2FE
100
AcDbEntity
  8
DIMNSIONS
  6
Continuous
 62
     7
100
AcDbLine
 10
244.5
 20
250.0
 30
0.0
 11
257.0031127929687
 21
253.3501989757512
 31
0.0
  0
LINE
  5
B0
330
2FE
100
AcDbEntity
  8
DIMNSIONS
  6
Continuous
 62
     7
100
AcDbLine
 10
244.5
 20
250.0
 30
0.0
 11
257.0031127929687
 21
246.6498010242488
 31
0.0
  0
LINE
  5
B1
330
2FE
100
AcDbEntity
  8
DIMNSIONS
  6
Continuous
 62
     7
100
AcDbLine
 10
434.4999999999999
 20
250.0
 30
0.0
 11
421.9968872070312
 21
246.6498010242488
 31
0.0
  0
LINE
  5
B2
330
2FE
100
AcDbEntity
  8
DIMNSIONS
  6
Continuous
 62
     7
100
AcDbLine
 10
434.4999999999999
 20
250.0
 30
0.0
 11
421.9968872070312
 21
253.3501989757512
 31
0.0
  0
TEXT
  5
B3
330
2FE
100
AcDbEntity
  8
DIMNSIONS
 62
     7
100
AcDbText
 10
326.2708333333332
 20
254.4694444444444
 30
0.0
 40
13.57367621527778
  1
190
 41
0.7
 11
326.2708333333332
 21
268.0431206597222
 31
0.0
100
AcDbText
 73
     3
  0
LINE
  5
B4
330
2FE
100
AcDbEntity
  8
DIMNSIONS
  6
Continuous
 62
     7
100
AcDbLine
 10
237.5
 20
237.88
 30
0.0
 11
237.5
 21
310.0
 31
0.0
  0
LINE
  5
B5
330
2FE
100
AcDbEntity
  8
DIMNSIONS
  6
Continuous
 62
     7
100
AcDbLine
 10
470.5
 20
147.0
 30
0.0
 11
470.5
 21
310.0
 31
0.0
  0
LINE
  5
B6
330
2FE
100
AcDbEntity
  8
DIMNSIONS
  6
Continuous
 62
     7
100
AcDbLine
 10
237.5
 20
300.0
 30
0.0
 11
470.5
 21
300.0
 31
0.0
  0
LINE
  5
B7
330
2FE
100
AcDbEntity
  8
DIMNSIONS
  6
Continuous
 62
     7
100
AcDbLine
 10
237.5
 20
300.0
 30
0.0
 11
250.0031127929688
 21
303.3501989757513
 31
0.0
  0
LINE
  5
B8
330
2FE
100
AcDbEntity
  8
DIMNSIONS
  6
Continuous
 62
     7
100
AcDbLine
 10
237.5
 20
300.0
 30
0.0
 11
250.0031127929688
 21
296.6498010242487
 31
0.0
  0
LINE
  5
B9
330
2FE
100
AcDbEntity
  8
DIMNSIONS
  6
Continuous
 62
     7
100
AcDbLine
 10
470.5
 20
300.0
 30
0.0
 11
457.9968872070312
 21
296.6498010242487
 31
0.0
  0
LINE
  5
BA
330
2FE
100
AcDbEntity
  8
DIMNSIONS
  6
Continuous
 62
     7
100
AcDbLine
 10
470.5
 20
300.0
 30
0.0
 11
457.9968872070312
 21
303.3501989757513
 31
0.0
  0
TEXT
  5
BB
330
2FE
100
AcDbEntity
  8
DIMNSIONS
 62
     7
100
AcDbText
 10
340.7708333333332
 20
304.4694444444444
 30
0.0
 40
13.57367621527778
  1
233
 41
0.7
 11
340.7708333333332
 21
318.0431206597222
 31
0.0
100
AcDbText
 73
     3
  0
LINE
  5
BC
330
2FE
100
AcDbEntity
  8
DIMNSIONS
  6
Continuous
 62
     7
100
AcDbLine
 10
171.3699999999998
 20
216.37
 30
0.0
 11
222.5
 21
216.37
 31
0.0
  0
LINE
  5
BD
330
2FE
100
AcDbEntity
  8
DIMNSIONS
  6
Continuous
 62
     7
100
AcDbLine
 10
171.3699999999998
 20
-116.37
 30
0.0
 11
222.5
 21
-116.37
 31
0.0
  0
LINE
  5
BE
330
2FE
100
AcDbEntity
  8
DIMNSIONS
  6
Continuous
 62
     7
100
AcDbLine
 10
212.5
 20
216.37
 30
0.0
 11
212.5
 21
-116.37
 31
0.0
  0
LINE
  5
BF
330
2FE
100
AcDbEntity
  8
DIMNSIONS
  6
Continuous
 62
     7
100
AcDbLine
 10
212.5
 20
216.37
 30
0.0
 11
215.8501989757513
 21
203.8668872070313
 31
0.0
  0
LINE
  5
C0
330
2FE
100
AcDbEntity
  8
DIMNSIONS
  6
Continuous
 62
     7
100
AcDbLine
 10
212.5
 20
216.37
 30
0.0
 11
209.1498010242488
 21
203.8668872070313
 31
0.0
  0
LINE
  5
C1
330
2FE
100
AcDbEntity
  8
DIMNSIONS
  6
Continuous
 62
     7
100
AcDbLine
 10
212.5
 20
-116.37
 30
0.0
 11
209.1498010242488
 21
-103.8668872070312
 31
0.0
  0
LINE
  5
C2
330
2FE
100
AcDbEntity
  8
DIMNSIONS
  6
Continuous
 62
     7
100
AcDbLine
 10
212.5
 20
-116.37
 30
0.0
 11
215.8501989757513
 21
-103.8668872070312
 31
0.0
  0
TEXT
  5
C3
330
2FE
100
AcDbEntity
  8
DIMNSIONS
 62
     7
100
AcDbText
 10
208.0305555555555
 20
36.77083333333333
 30
0.0
 40
13.57367621527778
  1
333
 50
90.0
 41
0.7
 11
194.4568793402777
 21
36.77083333333333
 31
0.0
100
AcDbText
 73
     3
  0
LINE
  5
C4
330
2FE
100
AcDbEntity
  8
DIMNSIONS
  6
Continuous
 62
     7
100
AcDbLine
 10
166.3699999999998
 20
-121.37
 30
0.0
 11
166.3699999999998
 21
-172.5
 31
0.0
  0
LINE
  5
C5
330
2FE
100
AcDbEntity
  8
DIMNSIONS
  6
Continuous
 62
     7
100
AcDbLine
 10
-166.3700000000001
 20
-121.37
 30
0.0
 11
-166.3700000000001
 21
-172.5
 31
0.0
  0
LINE
  5
C6
330
2FE
100
AcDbEntity
  8
DIMNSIONS
  6
Continuous
 62
     7
100
AcDbLine
 10
166.3699999999998
 20
-162.5
 30
0.0
 11
-166.3700000000001
 21
-162.5
 31
0.0
  0
LINE
  5
C7
330
2FE
100
AcDbEntity
  8
DIMNSIONS
  6
Continuous
 62
     7
100
AcDbLine
 10
166.3699999999998
 20
-162.5
 30
0.0
 11
153.8668872070311
 21
-165.8501989757512
 31
0.0
  0
LINE
  5
C8
330
2FE
100
AcDbEntity
  8
DIMNSIONS
  6
Continuous
 62
     7
100
AcDbLine
 10
166.3699999999998
 20
-162.5
 30
0.0
 11
153.8668872070311
 21
-159.1498010242488
 31
0.0
  0
LINE
  5
C9
330
2FE
100
AcDbEntity
  8
DIMNSIONS
  6
Continuous
 62
     7
100
AcDbLine
 10
-166.3700000000001
 20
-162.5
 30
0.0
 11
-153.8668872070314
 21
-159.1498010242488
 31
0.0
  0
LINE
  5
CA
330
2FE
100
AcDbEntity
  8
DIMNSIONS
  6
Continuous
 62
     7
100
AcDbLine
 10
-166.3700000000001
 20
-162.5
 30
0.0
 11
-153.8668872070314
 21
-165.8501989757512
 31
0.0
  0
TEXT
  5
CB
330
2FE
100
AcDbEntity
  8
DIMNSIONS
 62
     7
100
AcDbText
 10
-13.22916666666678
 20
-158.0305555555555
 30
0.0
 40
13.57367621527778
  1
333
 41
0.7
 11
-13.22916666666678
 21
-144.4568793402777
 31
0.0
100
AcDbText
 73
     3
  0
LINE
  5
CC
330
2FE
100
AcDbEntity
  8
DIMNSIONS
  6
Continuous
 62
     7
100
AcDbLine
 10
165.4809999999997
 20
185.81
 30
0.0
 11
165.4809999999997
 21
260.0
 31
0.0
  0
LINE
  5
CD
330
2FE
100
AcDbEntity
  8
DIMNSIONS
  6
Continuous
 62
     7
100
AcDbLine
 10
0.0
 20
220.481
 30
0.0
 11
0.0
 21
260.0
 31
0.0
  0
LINE
  5
CE
330
2FE
100
AcDbEntity
  8
DIMNSIONS
  6
Continuous
 62
     7
100
AcDbLine
 10
165.4809999999997
 20
250.0
 30
0.0
 11
0.0
 21
250.0
 31
0.0
  0
LINE
  5
CF
330
2FE
100
AcDbEntity
  8
DIMNSIONS
  6
Continuous
 62
     7
100
AcDbLine
 10
165.4809999999997
 20
250.0
 30
0.0
 11
152.977887207031
 21
246.6498010242488
 31
0.0
  0
LINE
  5
D0
330
2FE
100
AcDbEntity
  8
DIMNSIONS
  6
Continuous
 62
     7
100
AcDbLine
 10
165.4809999999997
 20
250.0
 30
0.0
 11
152.977887207031
 21
253.3501989757512
 31
0.0
  0
LINE
  5
D1
330
2FE
100
AcDbEntity
  8
DIMNSIONS
  6
Continuous
 62
     7
100
AcDbLine
 10
0.0
 20
250.0
 30
0.0
 11
12.50311279296875
 21
253.3501989757512
 31
0.0
  0
LINE
  5
D2
330
2FE
100
AcDbEntity
  8
DIMNSIONS
  6
Continuous
 62
     7
100
AcDbLine
 10
0.0
 20
250.0
 30
0.0
 11
12.50311279296875
 21
246.6498010242488
 31
0.0
  0
TEXT
  5
D3
330
2FE
100
AcDbEntity
  8
DIMNSIONS
 62
     7
100
AcDbText
 10
60.69188888888877
 20
254.4694444444444
 30
0.0
 40
13.57367621527778
  1
165.5
 41
0.7
 11
60.69188888888877
 21
268.0431206597222
 31
0.0
100
AcDbText
 73
     3
  0
LINE
  5
D4
330
2FE
100
AcDbEntity
  8
DIMNSIONS
  6
Continuous
 62
     7
100
AcDbLine
 10
-165.4810000000002
 20
185.81
 30
0.0
 11
-165.4810000000002
 21
260.0
 31
0.0
  0
LINE
  5
D5
330
2FE
100
AcDbEntity
  8
DIMNSIONS
  6
Continuous
 62
     7
100
AcDbLine
 10
0.0
 20
220.481
 30
0.0
 11
0.0
 21
260.0
 31
0.0
  0
LINE
  5
D6
330
2FE
100
AcDbEntity
  8
DIMNSIONS
  6
Continuous
 62
     7
100
AcDbLine
 10
-165.4810000000002
 20
250.0
 30
0.0
 11
0.0
 21
250.0
 31
0.0
  0
LINE
  5
D7
330
2FE
100
AcDbEntity
  8
DIMNSIONS
  6
Continuous
 62
     7
100
AcDbLine
 10
-165.4810000000002
 20
250.0
 30
0.0
 11
-152.9778872070314
 21
253.3501989757512
 31
0.0
  0
LINE
  5
D8
330
2FE
100
AcDbEntity
  8
DIMNSIONS
  6
Continuous
 62
     7
100
AcDbLine
 10
-165.4810000000002
 20
250.0
 30
0.0
 11
-152.9778872070314
 21
246.6498010242488
 31
0.0
  0
LINE
  5
D9
330
2FE
100
AcDbEntity
  8
DIMNSIONS
  6
Continuous
 62
     7
100
AcDbLine
 10
0.0
 20
250.0
 30
0.0
 11
-12.50311279296875
 21
246.6498010242488
 31
0.0
  0
LINE
  5
DA
330
2FE
100
AcDbEntity
  8
DIMNSIONS
  6
Continuous
 62
     7
100
AcDbLine
 10
0.0
 20
250.0
 30
0.0
 11
-12.50311279296875
 21
253.3501989757512
 31
0.0
  0
TEXT
  5
DB
330
2FE
100
AcDbEntity
  8
DIMNSIONS
 62
     7
100
AcDbText
 10
-104.7891111111112
 20
254.4694444444444
 30
0.0
 40
13.57367621527778
  1
165.5
 41
0.7
 11
-104.7891111111112
 21
268.0431206597222
 31
0.0
100
AcDbText
 73
     3
  0
LINE
  5
DC
330
2FE
100
AcDbEntity
  8
DIMNSIONS
  6
Continuous
 62
     7
100
AcDbLine
 10
-5.0
 20
215.481
 30
0.0
 11
-210.0
 21
215.481
 31
0.0
  0
LINE
  5
DD
330
2FE
100
AcDbEntity
  8
DIMNSIONS
  6
Continuous
 62
     7
100
AcDbLine
 10
-170.4810000000002
 20
180.8099999999999
 30
0.0
 11
-210.0
 21
180.8099999999999
 31
0.0
  0
LINE
  5
DE
330
2FE
100
AcDbEntity
  8
DIMNSIONS
  6
Continuous
 62
     7
100
AcDbLine
 10
-200.0
 20
180.8099999999999
 30
0.0
 11
-200.0
 21
215.481
 31
0.0
  0
LINE
  5
DF
330
2FE
100
AcDbEntity
  8
DIMNSIONS
  6
Continuous
 62
     7
100
AcDbLine
 10
-200.0
 20
215.481
 30
0.0
 11
-200.0
 21
232.981
 31
0.0
  0
LINE
  5
E0
330
2FE
100
AcDbEntity
  8
DIMNSIONS
  6
Continuous
 62
     7
100
AcDbLine
 10
-200.0
 20
215.481
 30
0.0
 11
-203.3501989757512
 21
227.9841127929687
 31
0.0
  0
LINE
  5
E1
330
2FE
100
AcDbEntity
  8
DIMNSIONS
  6
Continuous
 62
     7
100
AcDbLine
 10
-200.0
 20
215.481
 30
0.0
 11
-196.6498010242488
 21
227.9841127929687
 31
0.0
  0
LINE
  5
E2
330
2FE
100
AcDbEntity
  8
DIMNSIONS
  6
Continuous
 62
     7
100
AcDbLine
 10
-200.0
 20
180.8099999999999
 30
0.0
 11
-200.0
 21
163.3099999999999
 31
0.0
  0
LINE
  5
E3
330
2FE
100
AcDbEntity
  8
DIMNSIONS
  6
Continuous
 62
     7
100
AcDbLine
 10
-200.0
 20
180.8099999999999
 30
0.0
 11
-196.6498010242488
 21
168.3068872070312
 31
0.0
  0
LINE
  5
E4
330
2FE
100
AcDbEntity
  8
DIMNSIONS
  6
Continuous
 62
     7
100
AcDbLine
 10
-200.0
 20
180.8099999999999
 30
0.0
 11
-203.3501989757512
 21
168.3068872070312
 31
0.0
  0
TEXT
  5
E5
330
2FE
100
AcDbEntity
  8
DIMNSIONS
 62
     7
100
AcDbText
 10
-204.4694444444445
 20
180.5066111111111
 30
0.0
 40
13.57367621527778
  1
34.7
 50
90.0
 41
0.7
 11
-218.0431206597223
 21
180.5066111111111
 31
0.0
100
AcDbText
 73
     3
  0
LINE
  5
E6
330
2FE
100
AcDbEntity
  8
DIMNSIONS
  6
Continuous
 62
     7
100
AcDbLine
 10
-5.0
 20
-115.481
 30
0.0
 11
-210.0
 21
-115.481
 31
0.0
  0
LINE
  5
E7
330
2FE
100
AcDbEntity
  8
DIMNSIONS
  6
Continuous
 62
     7
100
AcDbLine
 10
-170.4810000000002
 20
-80.81000000000008
 30
0.0
 11
-210.0
 21
-80.81000000000008
 31
0.0
  0
LINE
  5
E8
330
2FE
100
AcDbEntity
  8
DIMNSIONS
  6
Continuous
 62
     7
100
AcDbLine
 10
-200.0
 20
-80.81000000000008
 30
0.0
 11
-200.0
 21
-115.481
 31
0.0
  0
LINE
  5
E9
330
2FE
100
AcDbEntity
  8
DIMNSIONS
  6
Continuous
 62
     7
100
AcDbLine
 10
-200.0
 20
-115.481
 30
0.0
 11
-200.0
 21
-132.981
 31
0.0
  0
LINE
  5
EA
330
2FE
100
AcDbEntity
  8
DIMNSIONS
  6
Continuous
 62
     7
100
AcDbLine
 10
-200.0
 20
-115.481
 30
0.0
 11
-196.6498010242488
 21
-127.9841127929687
 31
0.0
  0
LINE
  5
EB
330
2FE
100
AcDbEntity
  8
DIMNSIONS
  6
Continuous
 62
     7
100
AcDbLine
 10
-200.0
 20
-115.481
 30
0.0
 11
-203.3501989757512
 21
-127.9841127929687
 31
0.0
  0
LINE
  5
EC
330
2FE
100
AcDbEntity
  8
DIMNSIONS
  6
Continuous
 62
     7
100
AcDbLine
 10
-200.0
 20
-80.81000000000008
 30
0.0
 11
-200.0
 21
-63.31000000000006
 31
0.0
  0
LINE
  5
ED
330
2FE
100
AcDbEntity
  8
DIMNSIONS
  6
Continuous
 62
     7
100
AcDbLine
 10
-200.0
 20
-80.81000000000008
 30
0.0
 11
-203.3501989757512
 21
-68.30688720703129
 31
0.0
  0
LINE
  5
EE
330
2FE
100
AcDbEntity
  8
DIMNSIONS
  6
Continuous
 62
     7
100
AcDbLine
 10
-200.0
 20
-80.81000000000008
 30
0.0
 11
-196.6498010242488
 21
-68.30688720703129
 31
0.0
  0
TEXT
  5
EF
330
2FE
100
AcDbEntity
  8
DIMNSIONS
 62
     7
100
AcDbText
 10
-204.4694444444445
 20
-115.7843888888889
 30
0.0
 40
13.57367621527778
  1
34.7
 50
90.0
 41
0.7
 11
-218.0431206597223
 21
-115.7843888888889
 31
0.0
100
AcDbText
 73
     3
  0
LINE
  5
F0
330
2FE
100
AcDbEntity
  8
DIMNSIONS
  6
Continuous
 62
     7
100
AcDbLine
 10
-167.0427564613031
 20
-85.71748578761754
 30
0.0
 11
-187.5
 21
-150.0
 31
0.0
  0
LINE
  5
F1
330
2FE
100
AcDbEntity
  8
DIMNSIONS
  6
Continuous
 62
     7
100
AcDbLine
 10
-167.0427564613031
 20
-85.71748578761754
 30
0.0
 11
-167.4945016489906
 21
-98.65377540157659
 31
0.0
  0
LINE
  5
F2
330
2FE
100
AcDbEntity
  8
DIMNSIONS
  6
Continuous
 62
     7
100
AcDbLine
 10
-167.0427564613031
 20
-85.71748578761754
 30
0.0
 11
-173.9021240768574
 21
-96.69476863017507
 31
0.0
  0
LINE
  5
F3
330
2FE
100
AcDbEntity
  8
DIMNSIONS
  6
Continuous
 62
     7
100
AcDbLine
 10
-187.5
 20
-150.0
 30
0.0
 11
-197.5
 21
-150.0
 31
0.0
  0
TEXT
  5
F4
330
2FE
100
AcDbEntity
  8
DIMNSIONS
 62
     7
100
AcDbText
 10
-338.6111111111111
 20
-156.3499999999999
 30
0.0
 40
13.57367621527778
  1
φ10.3バックカン
 41
0.7
 11
-338.6111111111111
 21
-142.7763237847222
 31
0.0
100
AcDbText
 73
     3
  0
LINE
  5
F5
330
2FE
100
AcDbEntity
  8
DIMNSIONS
  6
Continuous
 62
     7
100
AcDbLine
 10
166.7377793897097
 20
-118.335893771415
 30
0.0
 11
175.0
 21
-162.5
 31
0.0
  0
LINE
  5
F6
330
2FE
100
AcDbEntity
  8
DIMNSIONS
  6
Continuous
 62
     7
100
AcDbLine
 10
166.7377793897097
 20
-118.335893771415
 30
0.0
 11
172.4121321653716
 21
-129.9700410658308
 31
0.0
  0
LINE
  5
F7
330
2FE
100
AcDbEntity
  8
DIMNSIONS
  6
Continuous
 62
     7
100
AcDbLine
 10
166.7377793897097
 20
-118.335893771415
 30
0.0
 11
165.8348393962597
 21
-131.24853726758
 31
0.0
  0
LINE
  5
F8
330
2FE
100
AcDbEntity
  8
DIMNSIONS
  6
Continuous
 62
     7
100
AcDbLine
 10
175.0
 20
-162.5
 30
0.0
 11
185.0
 21
-162.5
 31
0.0
  0
TEXT
  5
F9
330
2FE
100
AcDbEntity
  8
DIMNSIONS
 62
     7
100
AcDbText
 10
185.0
 20
-168.8499999999999
 30
0.0
 40
13.57367621527778
  1
M4グリル取付穴(4ヵ所)
 41
0.7
 11
185.0
 21
-155.2763237847222
 31
0.0
100
AcDbText
 73
     3
  0
TEXT
  5
FA
330
2FE
100
AcDbEntity
  8
DIMNSIONS
 62
     7
100
AcDbText
 10
-312.1527777777778
 20
-173.9888888888889
 30
0.0
 40
13.57367621527778
  1
取付穴(6ヵ所)
 41
0.7
 11
-312.1527777777778
 21
-160.4152126736111
 31
0.0
100
AcDbText
 73
     3
  0
LINE
  5
FB
330
2FE
100
AcDbEntity
  8
DATA
  6
Continuous
 62
     7
100
AcDbLine
 10
371.0
 20
180.5
 30
0.0
 11
435.0
 21
180.5
 31
0.0
  0
LINE
  5
FC
330
2FE
100
AcDbEntity
  8
DATA
  6
Continuous
 62
     7
100
AcDbLine
 10
371.0
 20
168.5
 30
0.0
 11
371.0
 21
180.5
 31
0.0
  0
LINE
  5
FD
330
2FE
100
AcDbEntity
  8
DATA
  6
Continuous
 62
     7
100
AcDbLine
 10
435.0
 20
168.5
 30
0.0
 11
419.0
 21
168.5
 31
0.0
  0
LINE
  5
FE
330
2FE
100
AcDbEntity
  8
DATA
  6
Continuous
 62
     7
100
AcDbLine
 10
387.0
 20
168.5
 30
0.0
 11
371.0
 21
168.5
 31
0.0
  0
LINE
  5
FF
330
2FE
100
AcDbEntity
  8
DATA
  6
Continuous
 62
     7
100
AcDbLine
 10
435.0
 20
180.5
 30
0.0
 11
435.0
 21
168.5
 31
0.0
  0
LINE
  5
100
330
2FE
100
AcDbEntity
  8
DATA
  6
Continuous
 62
     7
100
AcDbLine
 10
237.5
 20
-132.88
 30
0.0
 11
237.5
 21
-131.38
 31
0.0
  0
LINE
  5
101
330
2FE
100
AcDbEntity
  8
DATA
  6
Continuous
 62
     7
100
AcDbLine
 10
237.5
 20
-126.8800000000001
 30
0.0
 11
237.5
 21
226.88
 31
0.0
  0
LINE
  5
102
330
2FE
100
AcDbEntity
  8
DATA
  6
Continuous
 62
     7
100
AcDbLine
 10
237.5
 20
231.38
 30
0.0
 11
237.5
 21
232.88
 31
0.0
  0
CIRCLE
  5
103
330
2FE
100
AcDbEntity
  8
DATA
  6
Continuous
 62
     7
100
AcDbCircle
 10
176.9110000000001
 20
226.9110000000001
 30
0.0
 40
3.100000000000363
  0
CIRCLE
  5
104
330
2FE
100
AcDbEntity
  8
DATA
  6
Continuous
 62
     7
100
AcDbCircle
 10
176.9110000000001
 20
-126.9109999999999
 30
0.0
 40
3.100000000000363
  0
CIRCLE
  5
105
330
2FE
100
AcDbEntity
  8
DATA
  6
Continuous
 62
     7
100
AcDbCircle
 10
-176.9110000000001
 20
226.9110000000001
 30
0.0
 40
3.099999999999908
  0
CIRCLE
  5
106
330
2FE
100
AcDbEntity
  8
DATA
  6
Continuous
 62
     7
100
AcDbCircle
 10
-176.9110000000001
 20
-126.9109999999999
 30
0.0
 40
3.099999999999908
  0
LWPOLYLINE
  5
107
330
2FE
100
AcDbEntity
  8
DATA
  6
Continuous
 62
     7
100
AcDbPolyline
 90
        4
 70
     1
 43
0.0
 10
-182.8800000000001
 20
232.88
 10
182.8800000000001
 20
232.88
 10
182.8800000000001
 20
-132.88
 10
-182.8800000000001
 20
-132.88
  0
CIRCLE
  5
10E
330
2FE
100
AcDbEntity
  8
DATA
  6
Continuous
 62
     7
100
AcDbCircle
 10
165.4809999999997
 20
180.8099999999999
 30
0.0
 40
5.149999999999976
  0
CIRCLE
  5
10F
330
2FE
100
AcDbEntity
  8
DATA
  6
Continuous
 62
     7
100
AcDbCircle
 10
165.4809999999997
 20
-80.81000000000008
 30
0.0
 40
5.149999999999976
  0
CIRCLE
  5
110
330
2FE
100
AcDbEntity
  8
DATA
  6
Continuous
 62
     7
100
AcDbCircle
 10
-165.4810000000002
 20
180.8099999999999
 30
0.0
 40
5.149999999999976
  0
CIRCLE
  5
111
330
2FE
100
AcDbEntity
  8
DATA
  6
Continuous
 62
     7
100
AcDbCircle
 10
-165.4810000000002
 20
-80.81000000000008
 30
0.0
 40
5.149999999999976
  0
CIRCLE
  5
112
330
2FE
100
AcDbEntity
  8
DATA
  6
Continuous
 62
     7
100
AcDbCircle
 10
0.0
 20
215.481
 30
0.0
 40
5.149999999999976
  0
CIRCLE
  5
113
330
2FE
100
AcDbEntity
  8
DATA
  6
Continuous
 62
     7
100
AcDbCircle
 10
0.0
 20
-115.481
 30
0.0
 40
5.149999999999976
  0
LINE
  5
114
330
2FE
100
AcDbEntity
  8
DATA
  6
Continuous
 62
     7
100
AcDbLine
 10
176.8800000000001
 20
-131.38
 30
0.0
 11
176.8800000000001
 21
-132.88
 31
0.0
  0
LINE
  5
115
330
2FE
100
AcDbEntity
  8
DATA
  6
Continuous
 62
     7
100
AcDbLine
 10
176.8800000000001
 20
231.38
 30
0.0
 11
176.8800000000001
 21
232.88
 31
0.0
  0
LINE
  5
116
330
2FE
100
AcDbEntity
  8
DATA
  6
Continuous
 62
     7
100
AcDbLine
 10
181.38
 20
226.88
 30
0.0
 11
182.8800000000001
 21
226.88
 31
0.0
  0
LINE
  5
117
330
2FE
100
AcDbEntity
  8
DATA
  6
Continuous
 62
     7
100
AcDbLine
 10
181.38
 20
-126.88
 30
0.0
 11
182.8800000000001
 21
-126.88
 31
0.0
  0
LINE
  5
118
330
2FE
100
AcDbEntity
  8
DATA
  6
Continuous
 62
     7
100
AcDbLine
 10
-176.8800000000001
 20
-131.38
 30
0.0
 11
-176.8800000000001
 21
-132.88
 31
0.0
  0
LINE
  5
119
330
2FE
100
AcDbEntity
  8
DATA
  6
Continuous
 62
     7
100
AcDbLine
 10
-176.8800000000001
 20
231.38
 30
0.0
 11
-176.8800000000001
 21
232.88
 31
0.0
  0
LINE
  5
11A
330
2FE
100
AcDbEntity
  8
DATA
  6
Continuous
 62
     7
100
AcDbLine
 10
-181.38
 20
226.88
 30
0.0
 11
-182.8800000000001
 21
226.88
 31
0.0
  0
LINE
  5
11B
330
2FE
100
AcDbEntity
  8
DATA
  6
Continuous
 62
     7
100
AcDbLine
 10
-181.38
 20
-126.88
 30
0.0
 11
-182.8800000000001
 21
-126.88
 31
0.0
  0
CIRCLE
  5
11C
330
2FE
100
AcDbEntity
  8
DATA
  6
Continuous
 62
     7
100
AcDbCircle
 10
166.3699999999998
 20
-116.37
 30
0.0
 40
2.0
  0
CIRCLE
  5
11D
330
2FE
100
AcDbEntity
  8
DATA
  6
Continuous
 62
     7
100
AcDbCircle
 10
166.3699999999998
 20
216.37
 30
0.0
 40
2.0
  0
CIRCLE
  5
11E
330
2FE
100
AcDbEntity
  8
DATA
  6
Continuous
 62
     7
100
AcDbCircle
 10
-166.3700000000001
 20
216.37
 30
0.0
 40
2.0
  0
LINE
  5
11F
330
2FE
100
AcDbEntity
  8
DATA
  6
Continuous
 62
     7
100
AcDbLine
 10
-169.7763381628888
 20
211.8567422135994
 30
0.0
 11
-166.3115121826277
 21
208.3919162333381
 31
0.0
  0
LINE
  5
120
330
2FE
100
AcDbEntity
  8
DATA
  6
Continuous
 62
     7
100
AcDbLine
 10
-158.3919162333382
 20
216.3115121826272
 30
0.0
 11
-161.8567422135993
 21
219.7763381628886
 31
0.0
  0
ARC
  5
121
330
2FE
100
AcDbEntity
  8
DATA
  6
Continuous
 62
     7
100
AcDbCircle
 10
-162.3517169604301
 20
212.35171696043
 30
0.0
 40
5.599999999999788
100
AcDbArc
 50
225.0
 51
44.99999999999752
  0
ARC
  5
122
330
2FE
100
AcDbEntity
  8
DATA
  6
Continuous
 62
     7
100
AcDbCircle
 10
-165.816540188244
 20
215.8165401882441
 30
0.0
 40
5.599999999999948
100
AcDbArc
 50
44.99999999999835
 51
225.0
  0
LINE
  5
123
330
2FE
100
AcDbEntity
  8
DATA
  6
Continuous
 62
     7
100
AcDbLine
 10
169.7763381628884
 20
-111.8567422135994
 30
0.0
 11
166.3115121826272
 21
-108.391916233338
 31
0.0
  0
LINE
  5
124
330
2FE
100
AcDbEntity
  8
DATA
  6
Continuous
 62
     7
100
AcDbLine
 10
158.3919162333377
 20
-116.3115121826272
 30
0.0
 11
161.8567422135993
 21
-119.7763381628885
 31
0.0
  0
ARC
  5
125
330
2FE
100
AcDbEntity
  8
DATA
  6
Continuous
 62
     7
100
AcDbCircle
 10
162.3517169604297
 20
-112.3517169604299
 30
0.0
 40
5.599999999999868
100
AcDbArc
 50
45.0000000000008
 51
225.0000000000008
  0
ARC
  5
126
330
2FE
100
AcDbEntity
  8
DATA
  6
Continuous
 62
     7
100
AcDbCircle
 10
165.8165401882438
 20
-115.8165401882439
 30
0.0
 40
5.599999999999868
100
AcDbArc
 50
225.0000000000008
 51
45.0000000000008
  0
LINE
  5
127
330
2FE
100
AcDbEntity
  8
DATA
  6
Continuous
 62
     7
100
AcDbLine
 10
169.7763381628884
 20
211.8567422135994
 30
0.0
 11
166.3115121826272
 21
208.3919162333381
 31
0.0
  0
LINE
  5
128
330
2FE
100
AcDbEntity
  8
DATA
  6
Continuous
 62
     7
100
AcDbLine
 10
158.3919162333377
 20
216.3115121826272
 30
0.0
 11
161.8567422135993
 21
219.7763381628886
 31
0.0
  0
ARC
  5
129
330
2FE
100
AcDbEntity
  8
DATA
  6
Continuous
 62
     7
100
AcDbCircle
 10
162.3517169604297
 20
212.35171696043
 30
0.0
 40
5.599999999999868
100
AcDbArc
 50
134.9999999999992
 51
315.0
  0
ARC
  5
12A
330
2FE
100
AcDbEntity
  8
DATA
  6
Continuous
 62
     7
100
AcDbCircle
 10
165.8165401882438
 20
215.8165401882441
 30
0.0
 40
5.599999999999948
100
AcDbArc
 50
314.9999999999983
 51
134.9999999999999
  0
CIRCLE
  5
12B
330
2FE
100
AcDbEntity
  8
DATA
  6
Continuous
 62
     7
100
AcDbCircle
 10
0.0
 20
50.0
 30
0.0
 40
140.6
  0
CIRCLE
  5
12C
330
2FE
100
AcDbEntity
  8
DATA
  6
Continuous
 62
     7
100
AcDbCircle
 10
0.0
 20
-98.50000000000001
 30
0.0
 40
5.0
  0
CIRCLE
  5
12D
330
2FE
100
AcDbEntity
  8
DATA
  6
Continuous
 62
     7
100
AcDbCircle
 10
148.5
 20
50.0
 30
0.0
 40
5.0
  0
CIRCLE
  5
12E
330
2FE
100
AcDbEntity
  8
DATA
  6
Continuous
 62
     7
100
AcDbCircle
 10
105.0053570062023
 20
-55.00535700620229
 30
0.0
 40
4.999999999999799
  0
CIRCLE
  5
12F
330
2FE
100
AcDbEntity
  8
DATA
  6
Continuous
 62
     7
100
AcDbCircle
 10
0.0
 20
198.5
 30
0.0
 40
5.0
  0
CIRCLE
  5
130
330
2FE
100
AcDbEntity
  8
DATA
  6
Continuous
 62
     7
100
AcDbCircle
 10
105.0053570062023
 20
155.0053570062023
 30
0.0
 40
4.999999999999718
  0
CIRCLE
  5
131
330
2FE
100
AcDbEntity
  8
DATA
  6
Continuous
 62
     7
100
AcDbCircle
 10
-148.5
 20
50.0
 30
0.0
 40
5.0
  0
CIRCLE
  5
132
330
2FE
100
AcDbEntity
  8
DATA
  6
Continuous
 62
     7
100
AcDbCircle
 10
-105.0053570062023
 20
-55.00535700620229
 30
0.0
 40
5.00000000000012
  0
CIRCLE
  5
133
330
2FE
100
AcDbEntity
  8
DATA
  6
Continuous
 62
     7
100
AcDbCircle
 10
-105.0053570062023
 20
155.0053570062023
 30
0.0
 40
5.00000000000004
  0
CIRCLE
  5
134
330
2FE
100
AcDbEntity
  8
DATA
  6
Continuous
 62
     7
100
AcDbCircle
 10
0.0
 20
50.0
 30
0.0
 40
134.5
  0
CIRCLE
  5
135
330
2FE
100
AcDbEntity
  8
DATA
  6
Continuous
 62
     7
100
AcDbCircle
 10
0.0
 20
50.0
 30
0.0
 40
127.5
  0
CIRCLE
  5
136
330
2FE
100
AcDbEntity
  8
DATA
  6
Continuous
 62
     7
100
AcDbCircle
 10
0.0
 20
50.0
 30
0.0
 40
121.5
  0
CIRCLE
  5
137
330
2FE
100
AcDbEntity
  8
DATA
  6
Continuous
 62
     7
100
AcDbCircle
 10
0.0
 20
50.0
 30
0.0
 40
50.0
  0
CIRCLE
  5
138
330
2FE
100
AcDbEntity
  8
DATA
  6
Continuous
 62
     7
100
AcDbCircle
 10
0.0
 20
50.0
 30
0.0
 40
35.0
  0
CIRCLE
  5
139
330
2FE
100
AcDbEntity
  8
DATA
  6
Continuous
 62
     7
100
AcDbCircle
 10
0.0
 20
50.0
 30
0.0
 40
12.5
  0
LINE
  5
13A
330
2FE
100
AcDbEntity
  8
DATA
  6
Continuous
 62
     7
100
AcDbLine
 10
-35.35533905932746
 20
85.35533905932739
 30
0.0
 11
35.35533905932746
 21
14.64466094067268
 31
0.0
  0
LINE
  5
13B
330
2FE
100
AcDbEntity
  8
DATA
  6
Continuous
 62
     7
100
AcDbLine
 10
-30.00000000000001
 20
90.0
 30
0.0
 11
40.00000000000001
 21
20.0
 31
0.0
  0
LINE
  5
13C
330
2FE
100
AcDbEntity
  8
DATA
  6
Continuous
 62
     7
100
AcDbLine
 10
-23.91164991562664
 20
93.91164991562636
 30
0.0
 11
43.9116499156262
 21
26.0883500843737
 31
0.0
  0
LINE
  5
13D
330
2FE
100
AcDbEntity
  8
DATA
  6
Continuous
 62
     7
100
AcDbLine
 10
-17.01562118716447
 20
97.01562118716424
 30
0.0
 11
47.01562118716402
 21
32.98437881283576
 31
0.0
  0
LINE
  5
13E
330
2FE
100
AcDbEntity
  8
DATA
  6
Continuous
 62
     7
100
AcDbLine
 10
-9.154759474226466
 20
99.15475947422645
 30
0.0
 11
49.15475947422647
 21
40.84524052577342
 31
0.0
  0
LINE
  5
13F
330
2FE
100
AcDbEntity
  8
DATA
  6
Continuous
 62
     7
100
AcDbLine
 10
0.0
 20
100.0
 30
0.0
 11
50.00000000000002
 21
50.0
 31
0.0
  0
LINE
  5
140
330
2FE
100
AcDbEntity
  8
DATA
  6
Continuous
 62
     7
100
AcDbLine
 10
11.29171306613034
 20
98.70828693386965
 30
0.0
 11
48.70828693386968
 21
61.29171306613034
 31
0.0
  0
LINE
  5
141
330
2FE
100
AcDbEntity
  8
DATA
  6
Continuous
 62
     7
100
AcDbLine
 10
-40.00000000000001
 20
80.0
 30
0.0
 11
30.00000000000001
 21
10.0
 31
0.0
  0
LINE
  5
142
330
2FE
100
AcDbEntity
  8
DATA
  6
Continuous
 62
     7
100
AcDbLine
 10
-43.91164991562666
 20
73.91164991562634
 30
0.0
 11
23.9116499156262
 21
6.088350084373701
 31
0.0
  0
LINE
  5
143
330
2FE
100
AcDbEntity
  8
DATA
  6
Continuous
 62
     7
100
AcDbLine
 10
-47.01562118716448
 20
67.01562118716424
 30
0.0
 11
17.01562118716401
 21
2.984378812835757
 31
0.0
  0
LINE
  5
144
330
2FE
100
AcDbEntity
  8
DATA
  6
Continuous
 62
     7
100
AcDbLine
 10
-49.15475947422647
 20
59.15475947422653
 30
0.0
 11
9.154759474226466
 21
0.8452405257734199
 31
0.0
  0
LINE
  5
145
330
2FE
100
AcDbEntity
  8
DATA
  6
Continuous
 62
     7
100
AcDbLine
 10
-50.00000000000002
 20
50.0
 30
0.0
 11
0.0
 21
0.0
 31
0.0
  0
LINE
  5
146
330
2FE
100
AcDbEntity
  8
DATA
  6
Continuous
 62
     7
100
AcDbLine
 10
-48.70828693386968
 20
38.70828693386966
 30
0.0
 11
-11.29171306613034
 21
1.291713066130341
 31
0.0
  0
LINE
  5
147
330
2FE
100
AcDbEntity
  8
DATA
  6
Continuous
 62
     7
100
AcDbLine
 10
-35.35533905932746
 20
14.64466094067268
 30
0.0
 11
35.35533905932746
 21
85.35533905932739
 31
0.0
  0
LINE
  5
148
330
2FE
100
AcDbEntity
  8
DATA
  6
Continuous
 62
     7
100
AcDbLine
 10
-30.00000000000001
 20
10.0
 30
0.0
 11
40.00000000000001
 21
80.0
 31
0.0
  0
LINE
  5
149
330
2FE
100
AcDbEntity
  8
DATA
  6
Continuous
 62
     7
100
AcDbLine
 10
-23.91164991562664
 20
6.088350084373701
 30
0.0
 11
43.9116499156262
 21
73.91164991562634
 31
0.0
  0
LINE
  5
14A
330
2FE
100
AcDbEntity
  8
DATA
  6
Continuous
 62
     7
100
AcDbLine
 10
-17.01562118716447
 20
2.984378812835757
 30
0.0
 11
47.01562118716402
 21
67.01562118716424
 31
0.0
  0
LINE
  5
14B
330
2FE
100
AcDbEntity
  8
DATA
  6
Continuous
 62
     7
100
AcDbLine
 10
-9.154759474226466
 20
0.8452405257734199
 30
0.0
 11
49.15475947422647
 21
59.15475947422653
 31
0.0
  0
LINE
  5
14C
330
2FE
100
AcDbEntity
  8
DATA
  6
Continuous
 62
     7
100
AcDbLine
 10
0.0
 20
0.0
 30
0.0
 11
50.00000000000002
 21
50.0
 31
0.0
  0
LINE
  5
14D
330
2FE
100
AcDbEntity
  8
DATA
  6
Continuous
 62
     7
100
AcDbLine
 10
11.29171306613034
 20
1.291713066130341
 30
0.0
 11
48.70828693386968
 21
38.70828693386966
 31
0.0
  0
LINE
  5
14E
330
2FE
100
AcDbEntity
  8
DATA
  6
Continuous
 62
     7
100
AcDbLine
 10
-40.00000000000001
 20
20.0
 30
0.0
 11
30.00000000000001
 21
90.0
 31
0.0
  0
LINE
  5
14F
330
2FE
100
AcDbEntity
  8
DATA
  6
Continuous
 62
     7
100
AcDbLine
 10
-43.91164991562666
 20
26.0883500843737
 30
0.0
 11
23.9116499156262
 21
93.91164991562636
 31
0.0
  0
LINE
  5
150
330
2FE
100
AcDbEntity
  8
DATA
  6
Continuous
 62
     7
100
AcDbLine
 10
-47.01562118716448
 20
32.98437881283576
 30
0.0
 11
17.01562118716401
 21
97.01562118716424
 31
0.0
  0
LINE
  5
151
330
2FE
100
AcDbEntity
  8
DATA
  6
Continuous
 62
     7
100
AcDbLine
 10
-49.15475947422647
 20
40.84524052577342
 30
0.0
 11
9.154759474226466
 21
99.15475947422645
 31
0.0
  0
LINE
  5
152
330
2FE
100
AcDbEntity
  8
DATA
  6
Continuous
 62
     7
100
AcDbLine
 10
-50.00000000000002
 20
50.0
 30
0.0
 11
0.0
 21
100.0
 31
0.0
  0
LINE
  5
153
330
2FE
100
AcDbEntity
  8
DATA
  6
Continuous
 62
     7
100
AcDbLine
 10
-48.70828693386968
 20
61.29171306613034
 30
0.0
 11
-11.29171306613034
 21
98.70828693386965
 31
0.0
  0
LWPOLYLINE
  5
154
330
2FE
100
AcDbEntity
  8
DATA
  6
Continuous
 62
     7
100
AcDbPolyline
 90
        4
 70
     1
 43
0.0
 10
-181.38
 20
231.38
 10
181.38
 20
231.38
 10
181.38
 20
-131.38
 10
-181.38
 20
-131.38
  0
CIRCLE
  5
15B
330
2FE
100
AcDbEntity
  8
DATA
  6
Continuous
 62
     7
100
AcDbCircle
 10
-166.3700000000001
 20
-116.37
 30
0.0
 40
2.0
  0
LINE
  5
15C
330
2FE
100
AcDbEntity
  8
DATA
  6
Continuous
 62
     7
100
AcDbLine
 10
-169.7763381628888
 20
-111.8567422135994
 30
0.0
 11
-166.3115121826277
 21
-108.391916233338
 31
0.0
  0
LINE
  5
15D
330
2FE
100
AcDbEntity
  8
DATA
  6
Continuous
 62
     7
100
AcDbLine
 10
-158.3919162333382
 20
-116.3115121826272
 30
0.0
 11
-161.8567422135993
 21
-119.7763381628885
 31
0.0
  0
ARC
  5
15E
330
2FE
100
AcDbEntity
  8
DATA
  6
Continuous
 62
     7
100
AcDbCircle
 10
-162.3517169604301
 20
-112.3517169604299
 30
0.0
 40
5.600000000000189
100
AcDbArc
 50
315.0000000000025
 51
134.9999999999992
  0
ARC
  5
15F
330
2FE
100
AcDbEntity
  8
DATA
  6
Continuous
 62
     7
100
AcDbCircle
 10
-165.8165401882443
 20
-115.8165401882439
 30
0.0
 40
5.599999999999868
100
AcDbArc
 50
134.9999999999992
 51
315.0000000000025
  0
LINE
  5
160
330
2FE
100
AcDbEntity
  8
DATA
  6
Continuous
 62
     7
100
AcDbLine
 10
244.5
 20
232.88
 30
0.0
 11
237.5
 21
232.88
 31
0.0
  0
LINE
  5
161
330
2FE
100
AcDbEntity
  8
DATA
  6
Continuous
 62
     7
100
AcDbLine
 10
244.5
 20
-132.88
 30
0.0
 11
244.5
 21
232.88
 31
0.0
  0
LINE
  5
162
330
2FE
100
AcDbEntity
  8
DATA
  6
Continuous
 62
     7
100
AcDbLine
 10
242.0
 20
231.38
 30
0.0
 11
240.0
 21
231.38
 31
0.0
  0
CIRCLE
  5
163
330
2FE
100
AcDbEntity
  8
DATA
  6
Continuous
 62
     7
100
AcDbCircle
 10
127.0
 20
177.38
 30
0.0
 40
17.5
  0
CIRCLE
  5
164
330
2FE
100
AcDbEntity
  8
DATA
  6
Continuous
 62
     7
100
AcDbCircle
 10
-127.0
 20
177.38
 30
0.0
 40
17.5
  0
LINE
  5
165
330
2FE
100
AcDbEntity
  8
DATA
  6
Continuous
 62
     7
100
AcDbLine
 10
-106.25
 20
186.88
 30
0.0
 11
-102.25
 21
186.88
 31
0.0
  0
LINE
  5
166
330
2FE
100
AcDbEntity
  8
DATA
  6
Continuous
 62
     7
100
AcDbLine
 10
-95.75000000000001
 20
186.88
 30
0.0
 11
-91.75
 21
186.88
 31
0.0
  0
LINE
  5
167
330
2FE
100
AcDbEntity
  8
DATA
  6
Continuous
 62
     7
100
AcDbLine
 10
-102.25
 20
174.38
 30
0.0
 11
-102.25
 21
186.88
 31
0.0
  0
LINE
  5
168
330
2FE
100
AcDbEntity
  8
DATA
  6
Continuous
 62
     7
100
AcDbLine
 10
-95.75000000000001
 20
174.38
 30
0.0
 11
-102.25
 21
174.38
 31
0.0
  0
LINE
  5
169
330
2FE
100
AcDbEntity
  8
DATA
  6
Continuous
 62
     7
100
AcDbLine
 10
-95.75000000000001
 20
186.88
 30
0.0
 11
-95.75000000000001
 21
174.38
 31
0.0
  0
LINE
  5
16A
330
2FE
100
AcDbEntity
  8
DATA
  6
Continuous
 62
     7
100
AcDbLine
 10
-99.0
 20
196.88
 30
0.0
 11
-106.25
 21
186.88
 31
0.0
  0
LINE
  5
16B
330
2FE
100
AcDbEntity
  8
DATA
  6
Continuous
 62
     7
100
AcDbLine
 10
-91.75
 20
186.88
 30
0.0
 11
-99.0
 21
196.88
 31
0.0
  0
LINE
  5
16C
330
2FE
100
AcDbEntity
  8
DATA
  6
Continuous
 62
     7
100
AcDbLine
 10
91.75
 20
186.88
 30
0.0
 11
95.75000000000001
 21
186.88
 31
0.0
  0
LINE
  5
16D
330
2FE
100
AcDbEntity
  8
DATA
  6
Continuous
 62
     7
100
AcDbLine
 10
102.25
 20
186.88
 30
0.0
 11
106.25
 21
186.88
 31
0.0
  0
LINE
  5
16E
330
2FE
100
AcDbEntity
  8
DATA
  6
Continuous
 62
     7
100
AcDbLine
 10
95.75000000000001
 20
174.38
 30
0.0
 11
95.75000000000001
 21
186.88
 31
0.0
  0
LINE
  5
16F
330
2FE
100
AcDbEntity
  8
DATA
  6
Continuous
 62
     7
100
AcDbLine
 10
102.25
 20
174.38
 30
0.0
 11
95.75000000000001
 21
174.38
 31
0.0
  0
LINE
  5
170
330
2FE
100
AcDbEntity
  8
DATA
  6
Continuous
 62
     7
100
AcDbLine
 10
102.25
 20
186.88
 30
0.0
 11
102.25
 21
174.38
 31
0.0
  0
LINE
  5
171
330
2FE
100
AcDbEntity
  8
DATA
  6
Continuous
 62
     7
100
AcDbLine
 10
99.0
 20
196.88
 30
0.0
 11
91.75
 21
186.88
 31
0.0
  0
LINE
  5
172
330
2FE
100
AcDbEntity
  8
DATA
  6
Continuous
 62
     7
100
AcDbLine
 10
106.25
 20
186.88
 30
0.0
 11
99.0
 21
196.88
 31
0.0
  0
LINE
  5
173
330
2FE
100
AcDbEntity
  8
DATA
  6
Continuous
 62
     7
100
AcDbLine
 10
320.5
 20
198.38
 30
0.0
 11
244.5
 21
198.38
 31
0.0
  0
LINE
  5
174
330
2FE
100
AcDbEntity
  8
DATA
  6
Continuous
 62
     7
100
AcDbLine
 10
320.5
 20
156.38
 30
0.0
 11
244.5
 21
156.38
 31
0.0
  0
LINE
  5
175
330
2FE
100
AcDbEntity
  8
DATA
  6
Continuous
 62
     7
100
AcDbLine
 10
320.5
 20
198.38
 30
0.0
 11
320.5
 21
156.38
 31
0.0
  0
LINE
  5
176
330
2FE
100
AcDbEntity
  8
DATA
  6
Continuous
 62
     7
100
AcDbLine
 10
254.0
 20
-105.25
 30
0.0
 11
244.5
 21
-105.25
 31
0.0
  0
LINE
  5
177
330
2FE
100
AcDbEntity
  8
DATA
  6
Continuous
 62
     7
100
AcDbLine
 10
254.0
 20
205.25
 30
0.0
 11
246.0
 21
205.25
 31
0.0
  0
LINE
  5
178
330
2FE
100
AcDbEntity
  8
DATA
  6
Continuous
 62
     7
100
AcDbLine
 10
254.0
 20
-105.25
 30
0.0
 11
254.0
 21
156.38
 31
0.0
  0
LINE
  5
179
330
2FE
100
AcDbEntity
  8
DATA
  6
Continuous
 62
     7
100
AcDbLine
 10
254.0
 20
198.38
 30
0.0
 11
254.0
 21
205.25
 31
0.0
  0
LINE
  5
17A
330
2FE
100
AcDbEntity
  8
DATA
  6
Continuous
 62
     7
100
AcDbLine
 10
253.7999999999997
 20
222.88
 30
0.0
 11
251.0
 21
222.88
 31
0.0
  0
LINE
  5
17B
330
2FE
100
AcDbEntity
  8
DATA
  6
Continuous
 62
     7
100
AcDbLine
 10
246.0
 20
207.38
 30
0.0
 11
246.0
 21
198.38
 31
0.0
  0
LINE
  5
17C
330
2FE
100
AcDbEntity
  8
DATA
  6
Continuous
 62
     7
100
AcDbLine
 10
246.5
 20
207.88
 30
0.0
 11
253.7999999999997
 21
207.88
 31
0.0
  0
LINE
  5
17D
330
2FE
100
AcDbEntity
  8
DATA
  6
Continuous
 62
     7
100
AcDbLine
 10
255.7999999999997
 20
209.88
 30
0.0
 11
255.7999999999997
 21
220.88
 31
0.0
  0
LINE
  5
17E
330
2FE
100
AcDbEntity
  8
DATA
  6
Continuous
 62
     7
100
AcDbLine
 10
251.0
 20
221.38
 30
0.0
 11
251.0
 21
222.88
 31
0.0
  0
LINE
  5
17F
330
2FE
100
AcDbEntity
  8
DATA
  6
Continuous
 62
     7
100
AcDbLine
 10
253.7999999999997
 20
221.38
 30
0.0
 11
251.0
 21
221.38
 31
0.0
  0
LINE
  5
180
330
2FE
100
AcDbEntity
  8
DATA
  6
Continuous
 62
     7
100
AcDbLine
 10
254.2999999999997
 20
209.88
 30
0.0
 11
254.2999999999997
 21
220.88
 31
0.0
  0
LINE
  5
181
330
2FE
100
AcDbEntity
  8
DATA
  6
Continuous
 62
     7
100
AcDbLine
 10
246.5
 20
209.38
 30
0.0
 11
253.7999999999997
 21
209.38
 31
0.0
  0
ARC
  5
182
330
2FE
100
AcDbEntity
  8
DATA
  6
Continuous
 62
     7
100
AcDbCircle
 10
253.7999999999997
 20
220.88
 30
0.0
 40
2.0
100
AcDbArc
 50
0.0
 51
90.0
  0
ARC
  5
183
330
2FE
100
AcDbEntity
  8
DATA
  6
Continuous
 62
     7
100
AcDbCircle
 10
253.7999999999997
 20
209.88
 30
0.0
 40
2.0
100
AcDbArc
 50
270.0
 51
0.0
  0
ARC
  5
184
330
2FE
100
AcDbEntity
  8
DATA
  6
Continuous
 62
     7
100
AcDbCircle
 10
246.5
 20
207.38
 30
0.0
 40
2.0
100
AcDbArc
 50
90.0
 51
180.0
  0
ARC
  5
185
330
2FE
100
AcDbEntity
  8
DATA
  6
Continuous
 62
     7
100
AcDbCircle
 10
246.5
 20
207.38
 30
0.0
 40
0.5
100
AcDbArc
 50
90.0
 51
180.0
  0
ARC
  5
186
330
2FE
100
AcDbEntity
  8
DATA
  6
Continuous
 62
     7
100
AcDbCircle
 10
253.7999999999997
 20
209.88
 30
0.0
 40
0.5
100
AcDbArc
 50
270.0
 51
0.0
  0
ARC
  5
187
330
2FE
100
AcDbEntity
  8
DATA
  6
Continuous
 62
     7
100
AcDbCircle
 10
253.7999999999997
 20
220.88
 30
0.0
 40
0.5
100
AcDbArc
 50
0.0
 51
90.0
  0
LINE
  5
188
330
2FE
100
AcDbEntity
  8
DATA
  6
Continuous
 62
     7
100
AcDbLine
 10
267.0
 20
-86.04666429504563
 30
0.0
 11
267.0
 21
156.38
 31
0.0
  0
LINE
  5
189
330
2FE
100
AcDbEntity
  8
DATA
  6
Continuous
 62
     7
100
AcDbLine
 10
264.0327568630632
 20
-86.55706236801789
 30
0.0
 11
254.0
 21
-86.75
 31
0.0
  0
LINE
  5
18A
330
2FE
100
AcDbEntity
  8
DATA
  6
Continuous
 62
     7
100
AcDbLine
 10
264.5
 20
200.5
 30
0.0
 11
258.5
 21
200.5
 31
0.0
  0
LINE
  5
18B
330
2FE
100
AcDbEntity
  8
DATA
  6
Continuous
 62
     7
100
AcDbLine
 10
258.5
 20
203.0
 30
0.0
 11
258.5
 21
198.38
 31
0.0
  0
LINE
  5
18C
330
2FE
100
AcDbEntity
  8
DATA
  6
Continuous
 62
     7
100
AcDbLine
 10
258.5
 20
203.0
 30
0.0
 11
254.0
 21
203.0
 31
0.0
  0
LINE
  5
18D
330
2FE
100
AcDbEntity
  8
DATA
  6
Continuous
 62
     7
100
AcDbLine
 10
258.5
 20
200.0
 30
0.0
 11
254.0
 21
200.0
 31
0.0
  0
LINE
  5
18E
330
2FE
100
AcDbEntity
  8
DATA
  6
Continuous
 62
     7
100
AcDbLine
 10
264.5
 20
200.5
 30
0.0
 11
264.5
 21
198.38
 31
0.0
  0
LINE
  5
18F
330
2FE
100
AcDbEntity
  8
DATA
  6
Continuous
 62
     7
100
AcDbLine
 10
258.5
 20
156.38
 30
0.0
 11
258.5
 21
150.5053570062023
 31
0.0
  0
LINE
  5
190
330
2FE
100
AcDbEntity
  8
DATA
  6
Continuous
 62
     7
100
AcDbLine
 10
258.5
 20
150.5053570062023
 30
0.0
 11
254.0
 21
150.5053570062023
 31
0.0
  0
LINE
  5
191
330
2FE
100
AcDbEntity
  8
DATA
  6
Continuous
 62
     7
100
AcDbLine
 10
258.5
 20
153.5053570062023
 30
0.0
 11
254.0
 21
153.5053570062023
 31
0.0
  0
LINE
  5
192
330
2FE
100
AcDbEntity
  8
DATA
  6
Continuous
 62
     7
100
AcDbLine
 10
264.5
 20
156.38
 30
0.0
 11
264.5
 21
153.0053570062023
 31
0.0
  0
LINE
  5
193
330
2FE
100
AcDbEntity
  8
DATA
  6
Continuous
 62
     7
100
AcDbLine
 10
264.5
 20
153.0053570062023
 30
0.0
 11
258.5
 21
153.0053570062023
 31
0.0
  0
LINE
  5
194
330
2FE
100
AcDbEntity
  8
DATA
  6
Continuous
 62
     7
100
AcDbLine
 10
264.5
 20
52.0
 30
0.0
 11
258.5
 21
52.0
 31
0.0
  0
LINE
  5
195
330
2FE
100
AcDbEntity
  8
DATA
  6
Continuous
 62
     7
100
AcDbLine
 10
258.5
 20
54.5
 30
0.0
 11
258.5
 21
45.49999999999999
 31
0.0
  0
LINE
  5
196
330
2FE
100
AcDbEntity
  8
DATA
  6
Continuous
 62
     7
100
AcDbLine
 10
258.5
 20
45.49999999999999
 30
0.0
 11
254.0
 21
45.49999999999999
 31
0.0
  0
LINE
  5
197
330
2FE
100
AcDbEntity
  8
DATA
  6
Continuous
 62
     7
100
AcDbLine
 10
258.5
 20
54.5
 30
0.0
 11
254.0
 21
54.5
 31
0.0
  0
LINE
  5
198
330
2FE
100
AcDbEntity
  8
DATA
  6
Continuous
 62
     7
100
AcDbLine
 10
258.5
 20
51.5
 30
0.0
 11
254.0
 21
51.5
 31
0.0
  0
LINE
  5
199
330
2FE
100
AcDbEntity
  8
DATA
  6
Continuous
 62
     7
100
AcDbLine
 10
258.5
 20
48.5
 30
0.0
 11
254.0
 21
48.5
 31
0.0
  0
LINE
  5
19A
330
2FE
100
AcDbEntity
  8
DATA
  6
Continuous
 62
     7
100
AcDbLine
 10
264.5
 20
52.0
 30
0.0
 11
264.5
 21
48.0
 31
0.0
  0
LINE
  5
19B
330
2FE
100
AcDbEntity
  8
DATA
  6
Continuous
 62
     7
100
AcDbLine
 10
264.5
 20
48.0
 30
0.0
 11
258.5
 21
48.0
 31
0.0
  0
LINE
  5
19C
330
2FE
100
AcDbEntity
  8
DATA
  6
Continuous
 62
     7
100
AcDbLine
 10
264.5
 20
-53.0053570062023
 30
0.0
 11
258.5
 21
-53.0053570062023
 31
0.0
  0
LINE
  5
19D
330
2FE
100
AcDbEntity
  8
DATA
  6
Continuous
 62
     7
100
AcDbLine
 10
258.5
 20
-50.5053570062023
 30
0.0
 11
258.5
 21
-59.50535700620229
 31
0.0
  0
LINE
  5
19E
330
2FE
100
AcDbEntity
  8
DATA
  6
Continuous
 62
     7
100
AcDbLine
 10
258.5
 20
-59.50535700620229
 30
0.0
 11
254.0
 21
-59.50535700620229
 31
0.0
  0
LINE
  5
19F
330
2FE
100
AcDbEntity
  8
DATA
  6
Continuous
 62
     7
100
AcDbLine
 10
258.5
 20
-50.5053570062023
 30
0.0
 11
254.0
 21
-50.5053570062023
 31
0.0
  0
LINE
  5
1A0
330
2FE
100
AcDbEntity
  8
DATA
  6
Continuous
 62
     7
100
AcDbLine
 10
258.5
 20
-53.5053570062023
 30
0.0
 11
254.0
 21
-53.5053570062023
 31
0.0
  0
LINE
  5
1A1
330
2FE
100
AcDbEntity
  8
DATA
  6
Continuous
 62
     7
100
AcDbLine
 10
258.5
 20
-56.50535700620229
 30
0.0
 11
254.0
 21
-56.50535700620229
 31
0.0
  0
LINE
  5
1A2
330
2FE
100
AcDbEntity
  8
DATA
  6
Continuous
 62
     7
100
AcDbLine
 10
264.5
 20
-53.0053570062023
 30
0.0
 11
264.5
 21
-57.00535700620229
 31
0.0
  0
LINE
  5
1A3
330
2FE
100
AcDbEntity
  8
DATA
  6
Continuous
 62
     7
100
AcDbLine
 10
264.5
 20
-57.00535700620229
 30
0.0
 11
258.5
 21
-57.00535700620229
 31
0.0
  0
LINE
  5
1A4
330
2FE
100
AcDbEntity
  8
DATA
  6
Continuous
 62
     7
100
AcDbLine
 10
264.5
 20
-96.5
 30
0.0
 11
258.5
 21
-96.5
 31
0.0
  0
LINE
  5
1A5
330
2FE
100
AcDbEntity
  8
DATA
  6
Continuous
 62
     7
100
AcDbLine
 10
258.5
 20
-94.0
 30
0.0
 11
258.5
 21
-103.0
 31
0.0
  0
LINE
  5
1A6
330
2FE
100
AcDbEntity
  8
DATA
  6
Continuous
 62
     7
100
AcDbLine
 10
258.5
 20
-103.0
 30
0.0
 11
254.0
 21
-103.0
 31
0.0
  0
LINE
  5
1A7
330
2FE
100
AcDbEntity
  8
DATA
  6
Continuous
 62
     7
100
AcDbLine
 10
258.5
 20
-94.0
 30
0.0
 11
254.0
 21
-94.0
 31
0.0
  0
LINE
  5
1A8
330
2FE
100
AcDbEntity
  8
DATA
  6
Continuous
 62
     7
100
AcDbLine
 10
258.5
 20
-97.0
 30
0.0
 11
254.0
 21
-97.0
 31
0.0
  0
LINE
  5
1A9
330
2FE
100
AcDbEntity
  8
DATA
  6
Continuous
 62
     7
100
AcDbLine
 10
258.5
 20
-100.0
 30
0.0
 11
254.0
 21
-100.0
 31
0.0
  0
LINE
  5
1AA
330
2FE
100
AcDbEntity
  8
DATA
  6
Continuous
 62
     7
100
AcDbLine
 10
264.5
 20
-96.5
 30
0.0
 11
264.5
 21
-100.5
 31
0.0
  0
LINE
  5
1AB
330
2FE
100
AcDbEntity
  8
DATA
  6
Continuous
 62
     7
100
AcDbLine
 10
264.5
 20
-100.5
 30
0.0
 11
258.5
 21
-100.5
 31
0.0
  0
LINE
  5
1AC
330
2FE
100
AcDbEntity
  8
DATA
  6
Continuous
 62
     7
100
AcDbLine
 10
350.5
 20
-40.0
 30
0.0
 11
350.5
 21
67.34615384615385
 31
0.0
  0
LINE
  5
1AD
330
2FE
100
AcDbEntity
  8
DATA
  6
Continuous
 62
     7
100
AcDbLine
 10
318.5
 20
-52.45993485829706
 30
0.0
 11
268.6850058587306
 21
-85.30708877476344
 31
0.0
  0
ARC
  5
1AE
330
2FE
100
AcDbEntity
  8
DATA
  6
Continuous
 62
     7
100
AcDbCircle
 10
263.8404847207494
 20
-76.55891096771949
 30
0.0
 40
9.999999999999953
100
AcDbArc
 50
271.1017061152089
 51
298.9765826324303
  0
LINE
  5
1AF
330
2FE
100
AcDbEntity
  8
DATA
  6
Continuous
 62
     7
100
AcDbLine
 10
337.8594844763474
 20
147.0
 30
0.0
 11
320.5
 21
156.6132464777296
 31
0.0
  0
LINE
  5
1B0
330
2FE
100
AcDbEntity
  8
DATA
  6
Continuous
 62
     7
100
AcDbLine
 10
318.5
 20
-52.45993485829706
 30
0.0
 11
318.5
 21
-41.96849492933336
 31
0.0
  0
LINE
  5
1B1
330
2FE
100
AcDbEntity
  8
DATA
  6
Continuous
 62
     7
100
AcDbLine
 10
314.0
 20
-40.0
 30
0.0
 11
319.5
 21
-40.0
 31
0.0
  0
LINE
  5
1B2
330
2FE
100
AcDbEntity
  8
DATA
  6
Continuous
 62
     7
100
AcDbLine
 10
291.6330680797323
 20
-61.79095606137377
 30
0.0
 11
312.4045383012726
 21
-42.17570492189474
 31
0.0
  0
LINE
  5
1B3
330
2FE
100
AcDbEntity
  8
DATA
  6
Continuous
 62
     7
100
AcDbLine
 10
318.5
 20
-52.45993485829706
 30
0.0
 11
305.7842109076751
 21
-52.45993485829706
 31
0.0
  0
LINE
  5
1B4
330
2FE
100
AcDbEntity
  8
DATA
  6
Continuous
 62
     7
100
AcDbLine
 10
350.5
 20
-40.0
 30
0.0
 11
314.0
 21
-42.24531452877079
 31
0.0
  0
LINE
  5
1B5
330
2FE
100
AcDbEntity
  8
DATA
  6
Continuous
 62
     7
100
AcDbLine
 10
312.4045383012726
 20
-42.17570492189474
 30
0.0
 11
314.0
 21
-42.17570492189474
 31
0.0
  0
LINE
  5
1B6
330
2FE
100
AcDbEntity
  8
DATA
  6
Continuous
 62
     7
100
AcDbLine
 10
319.5
 20
153.4519622928935
 30
0.0
 11
314.2125848442115
 21
156.38
 31
0.0
  0
LINE
  5
1B7
330
2FE
100
AcDbEntity
  8
DATA
  6
Continuous
 62
     7
100
AcDbLine
 10
329.5
 20
117.7525243547242
 30
0.0
 11
279.8417038587636
 21
131.4458557218827
 31
0.0
  0
LINE
  5
1B8
330
2FE
100
AcDbEntity
  8
DATA
  6
Continuous
 62
     7
100
AcDbLine
 10
329.5
 20
81.59139053326661
 30
0.0
 11
285.1428412987962
 21
93.74645870768615
 31
0.0
  0
LINE
  5
1B9
330
2FE
100
AcDbEntity
  8
DATA
  6
Continuous
 62
     7
100
AcDbLine
 10
350.5
 20
24.28733996468896
 30
0.0
 11
285.2232428969355
 21
5.812652422099063
 31
0.0
  0
LINE
  5
1BA
330
2FE
100
AcDbEntity
  8
DATA
  6
Continuous
 62
     7
100
AcDbLine
 10
350.5
 20
-11.83733996468902
 30
0.0
 11
279.761381273056
 21
-31.98002486337873
 31
0.0
  0
LINE
  5
1BB
330
2FE
100
AcDbEntity
  8
DATA
  6
Continuous
 62
     7
100
AcDbLine
 10
335.5
 20
36.69951189028666
 30
0.0
 11
335.5
 21
32.75778839197187
 31
0.0
  0
LINE
  5
1BC
330
2FE
100
AcDbEntity
  8
DATA
  6
Continuous
 62
     7
100
AcDbLine
 10
335.5
 20
44.32908796653339
 30
0.0
 11
335.5
 21
40.34386868840601
 31
0.0
  0
LINE
  5
1BD
330
2FE
100
AcDbEntity
  8
DATA
  6
Continuous
 62
     7
100
AcDbLine
 10
350.5
 20
59.65613131159381
 30
0.0
 11
339.9768112684965
 21
59.65613131159381
 31
0.0
  0
LINE
  5
1BE
330
2FE
100
AcDbEntity
  8
DATA
  6
Continuous
 62
     7
100
AcDbLine
 10
350.5
 20
55.66541436743563
 30
0.0
 11
335.5
 21
55.66541436743563
 31
0.0
  0
LINE
  5
1BF
330
2FE
100
AcDbEntity
  8
DATA
  6
Continuous
 62
     7
100
AcDbLine
 10
350.5
 20
51.99987653939922
 30
0.0
 11
335.5
 21
51.99987653939922
 31
0.0
  0
LINE
  5
1C0
330
2FE
100
AcDbEntity
  8
DATA
  6
Continuous
 62
     7
100
AcDbLine
 10
350.5
 20
48.00012346060078
 30
0.0
 11
335.5
 21
48.00012346060078
 31
0.0
  0
LINE
  5
1C1
330
2FE
100
AcDbEntity
  8
DATA
  6
Continuous
 62
     7
100
AcDbLine
 10
350.5
 20
44.32908796653339
 30
0.0
 11
335.5
 21
44.32908796653339
 31
0.0
  0
LINE
  5
1C2
330
2FE
100
AcDbEntity
  8
DATA
  6
Continuous
 62
     7
100
AcDbLine
 10
350.5
 20
40.34386868840601
 30
0.0
 11
335.5
 21
40.34386868840601
 31
0.0
  0
LINE
  5
1C3
330
2FE
100
AcDbEntity
  8
DATA
  6
Continuous
 62
     7
100
AcDbLine
 10
350.5
 20
36.69951189028666
 30
0.0
 11
335.5
 21
36.69951189028666
 31
0.0
  0
LINE
  5
1C4
330
2FE
100
AcDbEntity
  8
DATA
  6
Continuous
 62
     7
100
AcDbLine
 10
350.5
 20
32.75778839197187
 30
0.0
 11
335.5
 21
32.75778839197187
 31
0.0
  0
LINE
  5
1C5
330
2FE
100
AcDbEntity
  8
DATA
  6
Continuous
 62
     7
100
AcDbLine
 10
350.5
 20
-17.87745368665923
 30
0.0
 11
335.5
 21
-17.87745368665923
 31
0.0
  0
LINE
  5
1C6
330
2FE
100
AcDbEntity
  8
DATA
  6
Continuous
 62
     7
100
AcDbLine
 10
350.5
 20
-20.43621884254458
 30
0.0
 11
335.5
 21
-20.43621884254458
 31
0.0
  0
LINE
  5
1C7
330
2FE
100
AcDbEntity
  8
DATA
  6
Continuous
 62
     7
100
AcDbLine
 10
350.5
 20
-22.66431684771124
 30
0.0
 11
335.5
 21
-22.66431684771124
 31
0.0
  0
LINE
  5
1C8
330
2FE
100
AcDbEntity
  8
DATA
  6
Continuous
 62
     7
100
AcDbLine
 10
350.5
 20
-24.95195021031248
 30
0.0
 11
335.5
 21
-24.95195021031248
 31
0.0
  0
LINE
  5
1C9
330
2FE
100
AcDbEntity
  8
DATA
  6
Continuous
 62
     7
100
AcDbLine
 10
350.5
 20
-26.92310306192689
 30
0.0
 11
335.5
 21
-26.92310306192689
 31
0.0
  0
LINE
  5
1CA
330
2FE
100
AcDbEntity
  8
DATA
  6
Continuous
 62
     7
100
AcDbLine
 10
350.5
 20
-28.92297960132612
 30
0.0
 11
335.5
 21
-28.92297960132612
 31
0.0
  0
LINE
  5
1CB
330
2FE
100
AcDbEntity
  8
DATA
  6
Continuous
 62
     7
100
AcDbLine
 10
350.5
 20
-30.49177662786985
 30
0.0
 11
335.5
 21
-30.49177662786985
 31
0.0
  0
LINE
  5
1CC
330
2FE
100
AcDbEntity
  8
DATA
  6
Continuous
 62
     7
100
AcDbLine
 10
350.5
 20
-32.32044815930521
 30
0.0
 11
335.5
 21
-32.32044815930521
 31
0.0
  0
LINE
  5
1CD
330
2FE
100
AcDbEntity
  8
DATA
  6
Continuous
 62
     7
100
AcDbLine
 10
350.5
 20
-33.73670695225905
 30
0.0
 11
335.5
 21
-33.73670695225905
 31
0.0
  0
LINE
  5
1CE
330
2FE
100
AcDbEntity
  8
DATA
  6
Continuous
 62
     7
100
AcDbLine
 10
350.5
 20
-35.11966529468657
 30
0.0
 11
335.5
 21
-35.11966529468657
 31
0.0
  0
LINE
  5
1CF
330
2FE
100
AcDbEntity
  8
DATA
  6
Continuous
 62
     7
100
AcDbLine
 10
335.5
 20
-35.11966529468657
 30
0.0
 11
335.5
 21
-33.73670695225905
 31
0.0
  0
LINE
  5
1D0
330
2FE
100
AcDbEntity
  8
DATA
  6
Continuous
 62
     7
100
AcDbLine
 10
335.5
 20
-32.32044815930521
 30
0.0
 11
335.5
 21
-30.49177662786985
 31
0.0
  0
LINE
  5
1D1
330
2FE
100
AcDbEntity
  8
DATA
  6
Continuous
 62
     7
100
AcDbLine
 10
335.5
 20
-28.92297960132612
 30
0.0
 11
335.5
 21
-26.92310306192689
 31
0.0
  0
LINE
  5
1D2
330
2FE
100
AcDbEntity
  8
DATA
  6
Continuous
 62
     7
100
AcDbLine
 10
335.5
 20
-24.95195021031248
 30
0.0
 11
335.5
 21
-22.66431684771124
 31
0.0
  0
LINE
  5
1D3
330
2FE
100
AcDbEntity
  8
DATA
  6
Continuous
 62
     7
100
AcDbLine
 10
335.5
 20
-20.43621884254458
 30
0.0
 11
335.5
 21
-17.87745368665923
 31
0.0
  0
LINE
  5
1D4
330
2FE
100
AcDbEntity
  8
DATA
  6
Continuous
 62
     7
100
AcDbLine
 10
470.5
 20
133.0
 30
0.0
 11
470.5
 21
142.0
 31
0.0
  0
LINE
  5
1D5
330
2FE
100
AcDbEntity
  8
DATA
  6
Continuous
 62
     7
100
AcDbLine
 10
329.5
 20
147.0
 30
0.0
 11
465.5
 21
147.0
 31
0.0
  0
LINE
  5
1D6
330
2FE
100
AcDbEntity
  8
DATA
  6
Continuous
 62
     7
100
AcDbLine
 10
455.394736842105
 20
144.0
 30
0.0
 11
332.5
 21
54.19230769230773
 31
0.0
  0
LINE
  5
1D7
330
2FE
100
AcDbEntity
  8
DATA
  6
Continuous
 62
     7
100
AcDbLine
 10
465.5
 20
144.0
 30
0.0
 11
455.394736842105
 21
144.0
 31
0.0
  0
LINE
  5
1D8
330
2FE
100
AcDbEntity
  8
DATA
  6
Continuous
 62
     7
100
AcDbLine
 10
467.4999999999999
 20
133.0
 30
0.0
 11
467.4999999999999
 21
142.0
 31
0.0
  0
LINE
  5
1D9
330
2FE
100
AcDbEntity
  8
DATA
  6
Continuous
 62
     7
100
AcDbLine
 10
467.4999999999999
 20
133.0
 30
0.0
 11
470.5
 21
133.0
 31
0.0
  0
ARC
  5
1DA
330
2FE
100
AcDbEntity
  8
DATA
  6
Continuous
 62
     7
100
AcDbCircle
 10
465.5
 20
142.0
 30
0.0
 40
5.0
100
AcDbArc
 50
0.0
 51
90.0
  0
ARC
  5
1DB
330
2FE
100
AcDbEntity
  8
DATA
  6
Continuous
 62
     7
100
AcDbCircle
 10
465.5
 20
142.0
 30
0.0
 40
2.0
100
AcDbArc
 50
0.0
 51
90.0
  0
LINE
  5
1DC
330
2FE
100
AcDbEntity
  8
DATA
  6
Continuous
 62
     7
100
AcDbLine
 10
244.5
 20
-132.88
 30
0.0
 11
237.5
 21
-132.88
 31
0.0
  0
LINE
  5
1DD
330
2FE
100
AcDbEntity
  8
DATA
  6
Continuous
 62
     7
100
AcDbLine
 10
242.0
 20
-131.38
 30
0.0
 11
237.5
 21
-126.8800000000001
 31
0.0
  0
LINE
  5
1DE
330
2FE
100
AcDbEntity
  8
DATA
  6
Continuous
 62
     7
100
AcDbLine
 10
237.5
 20
-131.38
 30
0.0
 11
242.0
 21
-131.38
 31
0.0
  0
LINE
  5
1DF
330
2FE
100
AcDbEntity
  8
DATA
  6
Continuous
 62
     7
100
AcDbLine
 10
272.5
 20
-82.91755340080126
 30
0.0
 11
272.5
 21
-41.59771520297864
 31
0.0
  0
LINE
  5
1E0
330
2FE
100
AcDbEntity
  8
DATA
  6
Continuous
 62
     7
100
AcDbLine
 10
272.5
 20
15.43470771835916
 30
0.0
 11
272.5
 21
84.10201005214458
 31
0.0
  0
LINE
  5
1E1
330
2FE
100
AcDbEntity
  8
DATA
  6
Continuous
 62
     7
100
AcDbLine
 10
272.5
 20
141.0860560115805
 30
0.0
 11
272.5
 21
156.38
 31
0.0
  0
LINE
  5
1E2
330
2FE
100
AcDbEntity
  8
DATA
  6
Continuous
 62
     7
100
AcDbLine
 10
319.5
 20
-40.0
 30
0.0
 11
319.5
 21
-20.66453002150513
 31
0.0
  0
LINE
  5
1E3
330
2FE
100
AcDbEntity
  8
DATA
  6
Continuous
 62
     7
100
AcDbLine
 10
319.5
 20
15.51369159064302
 30
0.0
 11
319.5
 21
84.19464897086925
 31
0.0
  0
LINE
  5
1E4
330
2FE
100
AcDbEntity
  8
DATA
  6
Continuous
 62
     7
100
AcDbLine
 10
319.5
 20
120.3721601073891
 30
0.0
 11
319.5
 21
153.4519622928935
 31
0.0
  0
LINE
  5
1E5
330
2FE
100
AcDbEntity
  8
DATA
  6
Continuous
 62
     7
100
AcDbLine
 10
329.5
 20
43.0
 30
0.0
 11
329.5
 21
147.0
 31
0.0
  0
LINE
  5
1E6
330
2FE
100
AcDbEntity
  8
DATA
  6
Continuous
 62
     7
100
AcDbLine
 10
332.5
 20
43.0
 30
0.0
 11
332.5
 21
54.19230769230773
 31
0.0
  0
LINE
  5
1E7
330
2FE
100
AcDbEntity
  8
DATA
  6
Continuous
 62
     7
100
AcDbLine
 10
329.5
 20
43.0
 30
0.0
 11
332.5
 21
43.0
 31
0.0
  0
LINE
  5
1E8
330
2FE
100
AcDbEntity
  8
DATA
  6
Continuous
 62
     7
100
AcDbLine
 10
319.5
 20
48.0
 30
0.0
 11
322.5
 21
48.0
 31
0.0
  0
LINE
  5
1E9
330
2FE
100
AcDbEntity
  8
DATA
  6
Continuous
 62
     7
100
AcDbLine
 10
322.5
 20
55.25
 30
0.0
 11
322.5
 21
44.75
 31
0.0
  0
LINE
  5
1EA
330
2FE
100
AcDbEntity
  8
DATA
  6
Continuous
 62
     7
100
AcDbLine
 10
322.5
 20
55.25
 30
0.0
 11
329.5
 21
55.25
 31
0.0
  0
LINE
  5
1EB
330
2FE
100
AcDbEntity
  8
DATA
  6
Continuous
 62
     7
100
AcDbLine
 10
322.5
 20
44.75
 30
0.0
 11
329.5
 21
44.75
 31
0.0
  0
LINE
  5
1EC
330
2FE
100
AcDbEntity
  8
DATA
  6
Continuous
 62
     7
100
AcDbLine
 10
319.5
 20
52.0
 30
0.0
 11
322.5
 21
52.0
 31
0.0
  0
ARC
  5
1ED
330
2FE
100
AcDbEntity
  8
DATA
  6
Continuous
 62
     7
100
AcDbCircle
 10
330.9375
 20
50.0
 30
0.0
 40
4.0625
100
AcDbArc
 50
292.6198649480405
 51
67.38013505195957
  0
LINE
  5
1EE
330
2FE
100
AcDbEntity
  8
DATA
  6
Continuous
 62
     7
100
AcDbLine
 10
335.5
 20
48.00012346060078
 30
0.0
 11
335.5
 21
51.99987653939922
 31
0.0
  0
LINE
  5
1EF
330
2FE
100
AcDbEntity
  8
DATA
  6
Continuous
 62
     7
100
AcDbLine
 10
344.9638258343444
 20
63.30048810971334
 30
0.0
 11
350.5
 21
63.30048810971334
 31
0.0
  0
LINE
  5
1F0
330
2FE
100
AcDbEntity
  8
DATA
  6
Continuous
 62
     7
100
AcDbLine
 10
335.5
 20
55.66541436743563
 30
0.0
 11
335.5
 21
56.38461538461542
 31
0.0
  0
LINE
  5
1F1
330
2FE
100
AcDbEntity
  8
DATA
  6
Continuous
 62
     7
100
AcDbLine
 10
314.0
 20
-42.24531452877079
 30
0.0
 11
314.0
 21
-40.0
 31
0.0
  0
LINE
  5
1F2
330
2FE
100
AcDbEntity
  8
DATA
  6
Continuous
 62
     7
100
AcDbLine
 10
305.7842109076751
 20
-52.45993485829706
 30
0.0
 11
272.5
 21
-74.40697344615853
 31
0.0
  0
LINE
  5
1F3
330
2FE
100
AcDbEntity
  8
DATA
  6
Continuous
 62
     7
100
AcDbLine
 10
458.0
 20
151.0
 30
0.0
 11
458.0
 21
147.0
 31
0.0
  0
LINE
  5
1F4
330
2FE
100
AcDbEntity
  8
DATA
  6
Continuous
 62
     7
100
AcDbLine
 10
448.0
 20
151.0
 30
0.0
 11
448.0
 21
147.0
 31
0.0
  0
LINE
  5
1F5
330
2FE
100
AcDbEntity
  8
DATA
  6
Continuous
 62
     7
100
AcDbLine
 10
408.0
 20
151.0
 30
0.0
 11
408.0
 21
147.0
 31
0.0
  0
LINE
  5
1F6
330
2FE
100
AcDbEntity
  8
DATA
  6
Continuous
 62
     7
100
AcDbLine
 10
398.0
 20
151.0
 30
0.0
 11
398.0
 21
147.0
 31
0.0
  0
LINE
  5
1F7
330
2FE
100
AcDbEntity
  8
DATA
  6
Continuous
 62
     7
100
AcDbLine
 10
348.0
 20
151.0
 30
0.0
 11
348.0
 21
147.0
 31
0.0
  0
LINE
  5
1F8
330
2FE
100
AcDbEntity
  8
DATA
  6
Continuous
 62
     7
100
AcDbLine
 10
358.0
 20
151.0
 30
0.0
 11
358.0
 21
147.0
 31
0.0
  0
LINE
  5
1F9
330
2FE
100
AcDbEntity
  8
DATA
  6
Continuous
 62
     7
100
AcDbLine
 10
458.0
 20
152.5
 30
0.0
 11
458.0
 21
154.5
 31
0.0
  0
LWPOLYLINE
  5
1FA
330
2FE
100
AcDbEntity
  8
DATA
  6
Continuous
 62
     7
100
AcDbPolyline
 90
        4
 70
     1
 43
0.0
 10
340.5
 20
152.5
 10
465.5
 20
152.5
 10
465.5
 20
151.0
 10
340.5
 20
151.0
  0
LINE
  5
201
330
2FE
100
AcDbEntity
  8
DATA
  6
Continuous
 62
     7
100
AcDbLine
 10
458.0
 20
154.5
 30
0.0
 11
448.0
 21
154.5
 31
0.0
  0
LINE
  5
202
330
2FE
100
AcDbEntity
  8
DATA
  6
Continuous
 62
     7
100
AcDbLine
 10
448.0
 20
152.5
 30
0.0
 11
448.0
 21
154.5
 31
0.0
  0
ARC
  5
203
330
2FE
100
AcDbEntity
  8
DATA
  6
Continuous
 62
     7
100
AcDbCircle
 10
453.0635083268962
 20
152.6516133230339
 30
0.0
 40
4.348850422813
100
AcDbArc
 50
25.15248637750535
 51
154.8475136224946
  0
LINE
  5
204
330
2FE
100
AcDbEntity
  8
DATA
  6
Continuous
 62
     7
100
AcDbLine
 10
348.0
 20
152.5
 30
0.0
 11
348.0
 21
154.5
 31
0.0
  0
LINE
  5
205
330
2FE
100
AcDbEntity
  8
DATA
  6
Continuous
 62
     7
100
AcDbLine
 10
348.0
 20
154.5
 30
0.0
 11
358.0
 21
154.5
 31
0.0
  0
LINE
  5
206
330
2FE
100
AcDbEntity
  8
DATA
  6
Continuous
 62
     7
100
AcDbLine
 10
358.0
 20
152.5
 30
0.0
 11
358.0
 21
154.5
 31
0.0
  0
ARC
  5
207
330
2FE
100
AcDbEntity
  8
DATA
  6
Continuous
 62
     7
100
AcDbCircle
 10
352.9364916731037
 20
152.6516133230339
 30
0.0
 40
4.348850422813
100
AcDbArc
 50
25.15248637750535
 51
154.8475136224946
  0
LINE
  5
208
330
2FE
100
AcDbEntity
  8
DATA
  6
Continuous
 62
     7
100
AcDbLine
 10
384.0
 20
172.5
 30
0.0
 11
422.0
 21
172.5
 31
0.0
  0
LINE
  5
209
330
2FE
100
AcDbEntity
  8
DATA
  6
Continuous
 62
     7
100
AcDbLine
 10
384.0
 20
152.5
 30
0.0
 11
384.0
 21
154.5
 31
0.0
  0
LINE
  5
20A
330
2FE
100
AcDbEntity
  8
DATA
  6
Continuous
 62
     7
100
AcDbLine
 10
384.0
 20
170.5
 30
0.0
 11
384.0
 21
172.5
 31
0.0
  0
LINE
  5
20B
330
2FE
100
AcDbEntity
  8
DATA
  6
Continuous
 62
     7
100
AcDbLine
 10
422.0
 20
172.5
 30
0.0
 11
422.0
 21
170.5
 31
0.0
  0
LINE
  5
20C
330
2FE
100
AcDbEntity
  8
DATA
  6
Continuous
 62
     7
100
AcDbLine
 10
422.0
 20
154.5
 30
0.0
 11
422.0
 21
152.5
 31
0.0
  0
ARC
  5
20D
330
2FE
100
AcDbEntity
  8
DATA
  6
Continuous
 62
     7
100
AcDbCircle
 10
447.9999999999991
 20
167.4999999999996
 30
0.0
 40
15.00000000000027
100
AcDbArc
 50
304.8983957587557
 51
150.073565133393
  0
ARC
  5
20E
330
2FE
100
AcDbEntity
  8
DATA
  6
Continuous
 62
     7
100
AcDbCircle
 10
447.9999999999991
 20
167.4999999999996
 30
0.0
 40
15.00000000000034
100
AcDbArc
 50
176.1774462707245
 51
270.0000000000035
  0
LINE
  5
20F
330
2FE
100
AcDbEntity
  8
DATA
  6
Continuous
 62
     7
100
AcDbLine
 10
423.2499999999999
 20
168.5
 30
0.0
 11
423.2499999999999
 21
152.5
 31
0.0
  0
LINE
  5
210
330
2FE
100
AcDbEntity
  8
DATA
  6
Continuous
 62
     7
100
AcDbLine
 10
422.75
 20
168.5
 30
0.0
 11
422.75
 21
152.5
 31
0.0
  0
LINE
  5
211
330
2FE
100
AcDbEntity
  8
DATA
  6
Continuous
 62
     7
100
AcDbLine
 10
383.25
 20
168.5
 30
0.0
 11
383.25
 21
152.5
 31
0.0
  0
LINE
  5
212
330
2FE
100
AcDbEntity
  8
DATA
  6
Continuous
 62
     7
100
AcDbLine
 10
382.75
 20
168.5
 30
0.0
 11
382.75
 21
152.5
 31
0.0
  0
LINE
  5
213
330
2FE
100
AcDbEntity
  8
DATA
  6
Continuous
 62
     7
100
AcDbLine
 10
345.0
 20
172.5
 30
0.0
 11
365.0
 21
172.5
 31
0.0
  0
LINE
  5
214
330
2FE
100
AcDbEntity
  8
DATA
  6
Continuous
 62
     7
100
AcDbLine
 10
345.0
 20
152.5
 30
0.0
 11
345.0
 21
172.5
 31
0.0
  0
LINE
  5
215
330
2FE
100
AcDbEntity
  8
DATA
  6
Continuous
 62
     7
100
AcDbLine
 10
365.0
 20
172.5
 30
0.0
 11
365.0
 21
152.5
 31
0.0
  0
ARC
  5
216
330
2FE
100
AcDbEntity
  8
DATA
  6
Continuous
 62
     7
100
AcDbCircle
 10
282.5
 20
141.0860560115805
 30
0.0
 40
10.0
100
AcDbArc
 50
180.0
 51
254.5837455759895
  0
ARC
  5
217
330
2FE
100
AcDbEntity
  8
DATA
  6
Continuous
 62
     7
100
AcDbCircle
 10
282.5
 20
84.10201005214451
 30
0.0
 40
10.00000000000006
100
AcDbArc
 50
74.67557997316301
 51
179.9999999999997
  0
ARC
  5
218
330
2FE
100
AcDbEntity
  8
DATA
  6
Continuous
 62
     7
100
AcDbCircle
 10
282.5
 20
15.43470771835927
 30
0.0
 40
10.0
100
AcDbArc
 50
180.0
 51
285.8026225600586
  0
ARC
  5
219
330
2FE
100
AcDbEntity
  8
DATA
  6
Continuous
 62
     7
100
AcDbCircle
 10
282.5
 20
-41.59771520297864
 30
0.0
 40
10.00000000000007
100
AcDbArc
 50
105.8942006916114
 51
180.0
  0
TEXT
  5
21A
330
2FE
100
AcDbEntity
  8
DATA
 62
     7
100
AcDbText
 10
350.0
 20
-440.21829
 30
0.0
 40
12.21630859375
  1
Control 321C
 41
0.7
 11
350.0
 21
-428.00198140625
 31
0.0
100
AcDbText
 73
     3
  0
LINE
  5
21B
330
2FE
100
AcDbEntity
  8
DATA
  6
Continuous
 62
     7
100
AcDbLine
 10
437.5
 20
130.9230769230769
 30
0.0
 11
437.5
 21
57.5
 31
0.0
  0
LINE
  5
21C
330
2FE
100
AcDbEntity
  8
DATA
  6
Continuous
 62
     7
100
AcDbLine
 10
437.5
 20
57.5
 30
0.0
 11
427.4499999999998
 21
57.5
 31
0.0
  0
ARC
  5
21D
330
2FE
100
AcDbEntity
  8
DATA
  6
Continuous
 62
     7
100
AcDbCircle
 10
449.5
 20
161.7500000000002
 30
0.0
 40
9.249999999999891
100
AcDbArc
 50
317.637324356268
 51
260.6675818161976
  0
LINE
  5
21E
330
2FE
100
AcDbEntity
  8
DATA
  6
Continuous
 62
     7
100
AcDbLine
 10
350.5
 20
-15.5
 30
0.0
 11
350.5
 21
67.34615384615385
 31
0.0
  0
LINE
  5
21F
330
2FE
100
AcDbEntity
  8
DATA
  6
Continuous
 62
     7
100
AcDbLine
 10
390.5
 20
-15.5
 30
0.0
 11
390.5
 21
96.57692307692308
 31
0.0
  0
LINE
  5
220
330
2FE
100
AcDbEntity
  8
DATA
  6
Continuous
 62
     7
100
AcDbLine
 10
358.5
 20
73.19230769230774
 30
0.0
 11
358.5
 21
-20.0
 31
0.0
  0
LINE
  5
221
330
2FE
100
AcDbEntity
  8
DATA
  6
Continuous
 62
     7
100
AcDbLine
 10
383.5
 20
91.46153846153852
 30
0.0
 11
383.5
 21
-20.0
 31
0.0
  0
LINE
  5
222
330
2FE
100
AcDbEntity
  8
DATA
  6
Continuous
 62
     7
100
AcDbLine
 10
383.5
 20
-20.0
 30
0.0
 11
358.5
 21
-20.0
 31
0.0
  0
LINE
  5
223
330
2FE
100
AcDbEntity
  8
DATA
  6
Continuous
 62
     7
100
AcDbLine
 10
390.5
 20
-15.5
 30
0.0
 11
383.5
 21
-15.5
 31
0.0
  0
LINE
  5
224
330
2FE
100
AcDbEntity
  8
DATA
  6
Continuous
 62
     7
100
AcDbLine
 10
358.5
 20
-15.5
 30
0.0
 11
350.5
 21
-15.5
 31
0.0
  0
LINE
  5
225
330
2FE
100
AcDbEntity
  8
DATA
  6
Continuous
 62
     7
100
AcDbLine
 10
395.9499999999999
 20
16.25
 30
0.0
 11
395.9499999999999
 21
43.0
 31
0.0
  0
LINE
  5
226
330
2FE
100
AcDbEntity
  8
DATA
  6
Continuous
 62
     7
100
AcDbLine
 10
395.9499999999999
 20
57.0
 30
0.0
 11
395.9499999999999
 21
83.75
 31
0.0
  0
LINE
  5
227
330
2FE
100
AcDbEntity
  8
DATA
  6
Continuous
 62
     7
100
AcDbLine
 10
390.9499999999999
 20
65.0
 30
0.0
 11
395.9499999999999
 21
65.0
 31
0.0
  0
LINE
  5
228
330
2FE
100
AcDbEntity
  8
DATA
  6
Continuous
 62
     7
100
AcDbLine
 10
390.9499999999999
 20
35.0
 30
0.0
 11
395.9499999999999
 21
35.0
 31
0.0
  0
LINE
  5
229
330
2FE
100
AcDbEntity
  8
DATA
  6
Continuous
 62
     7
100
AcDbLine
 10
406.9499999999998
 20
7.5
 30
0.0
 11
406.9499999999998
 21
43.0
 31
0.0
  0
LINE
  5
22A
330
2FE
100
AcDbEntity
  8
DATA
  6
Continuous
 62
     7
100
AcDbLine
 10
406.9499999999998
 20
57.0
 30
0.0
 11
406.9499999999998
 21
92.5
 31
0.0
  0
LINE
  5
22B
330
2FE
100
AcDbEntity
  8
DATA
  6
Continuous
 62
     7
100
AcDbLine
 10
395.9499999999999
 20
83.75
 30
0.0
 11
406.9499999999998
 21
83.75
 31
0.0
  0
LINE
  5
22C
330
2FE
100
AcDbEntity
  8
DATA
  6
Continuous
 62
     7
100
AcDbLine
 10
395.9499999999999
 20
16.25
 30
0.0
 11
406.9499999999998
 21
16.25
 31
0.0
  0
LINE
  5
22D
330
2FE
100
AcDbEntity
  8
DATA
  6
Continuous
 62
     7
100
AcDbLine
 10
420.9499999999998
 20
7.5
 30
0.0
 11
420.9499999999998
 21
43.0
 31
0.0
  0
LINE
  5
22E
330
2FE
100
AcDbEntity
  8
DATA
  6
Continuous
 62
     7
100
AcDbLine
 10
420.9499999999998
 20
57.0
 30
0.0
 11
420.9499999999998
 21
92.5
 31
0.0
  0
LINE
  5
22F
330
2FE
100
AcDbEntity
  8
DATA
  6
Continuous
 62
     7
100
AcDbLine
 10
427.4499999999998
 20
10.75
 30
0.0
 11
427.4499999999998
 21
43.0
 31
0.0
  0
LINE
  5
230
330
2FE
100
AcDbEntity
  8
DATA
  6
Continuous
 62
     7
100
AcDbLine
 10
427.4499999999998
 20
57.0
 30
0.0
 11
427.4499999999998
 21
89.25
 31
0.0
  0
LINE
  5
231
330
2FE
100
AcDbEntity
  8
DATA
  6
Continuous
 62
     7
100
AcDbLine
 10
420.9499999999998
 20
92.5
 30
0.0
 11
406.9499999999998
 21
92.5
 31
0.0
  0
LINE
  5
232
330
2FE
100
AcDbEntity
  8
DATA
  6
Continuous
 62
     7
100
AcDbLine
 10
427.4499999999998
 20
89.25
 30
0.0
 11
420.9499999999998
 21
89.25
 31
0.0
  0
LINE
  5
233
330
2FE
100
AcDbEntity
  8
DATA
  6
Continuous
 62
     7
100
AcDbLine
 10
427.4499999999998
 20
10.75
 30
0.0
 11
420.9499999999998
 21
10.75
 31
0.0
  0
LINE
  5
234
330
2FE
100
AcDbEntity
  8
DATA
  6
Continuous
 62
     7
100
AcDbLine
 10
420.9499999999998
 20
7.5
 30
0.0
 11
406.9499999999998
 21
7.5
 31
0.0
  0
LINE
  5
235
330
2FE
100
AcDbEntity
  8
DATA
  6
Continuous
 62
     7
100
AcDbLine
 10
391.9499999999999
 20
57.0
 30
0.0
 11
431.9499999999998
 21
57.0
 31
0.0
  0
LINE
  5
236
330
2FE
100
AcDbEntity
  8
DATA
  6
Continuous
 62
     7
100
AcDbLine
 10
391.9499999999999
 20
43.0
 30
0.0
 11
431.9499999999998
 21
43.0
 31
0.0
  0
LINE
  5
237
330
2FE
100
AcDbEntity
  8
DATA
  6
Continuous
 62
     7
100
AcDbLine
 10
390.9499999999999
 20
44.0
 30
0.0
 11
431.9499999999998
 21
44.0
 31
0.0
  0
LINE
  5
238
330
2FE
100
AcDbEntity
  8
DATA
  6
Continuous
 62
     7
100
AcDbLine
 10
390.9499999999999
 20
56.0
 30
0.0
 11
431.9499999999998
 21
56.0
 31
0.0
  0
LINE
  5
239
330
2FE
100
AcDbEntity
  8
DATA
  6
Continuous
 62
     7
100
AcDbLine
 10
391.9499999999999
 20
57.0
 30
0.0
 11
391.9499999999999
 21
43.0
 31
0.0
  0
LINE
  5
23A
330
2FE
100
AcDbEntity
  8
DATA
  6
Continuous
 62
     7
100
AcDbLine
 10
427.9499999999998
 20
56.0
 30
0.0
 11
427.9499999999998
 21
44.0
 31
0.0
  0
LINE
  5
23B
330
2FE
100
AcDbEntity
  8
DATA
  6
Continuous
 62
     7
100
AcDbLine
 10
431.9499999999998
 20
57.0
 30
0.0
 11
431.9499999999998
 21
56.0
 31
0.0
  0
LINE
  5
23C
330
2FE
100
AcDbEntity
  8
DATA
  6
Continuous
 62
     7
100
AcDbLine
 10
431.9499999999998
 20
44.0
 30
0.0
 11
431.9499999999998
 21
43.0
 31
0.0
  0
LINE
  5
23D
330
2FE
100
AcDbEntity
  8
DATA
  6
Continuous
 62
     7
100
AcDbLine
 10
394.4499999999999
 20
51.89999999999998
 30
0.0
 11
394.4499999999999
 21
48.10000000000002
 31
0.0
  0
LINE
  5
23E
330
2FE
100
AcDbEntity
  8
DATA
  6
Continuous
 62
     7
100
AcDbLine
 10
392.4499999999999
 20
53.89999999999998
 30
0.0
 11
391.9499999999999
 21
53.89999999999998
 31
0.0
  0
LINE
  5
23F
330
2FE
100
AcDbEntity
  8
DATA
  6
Continuous
 62
     7
100
AcDbLine
 10
392.4499999999999
 20
46.10000000000002
 30
0.0
 11
391.9499999999999
 21
46.10000000000002
 31
0.0
  0
ARC
  5
240
330
2FE
100
AcDbEntity
  8
DATA
  6
Continuous
 62
     7
100
AcDbCircle
 10
392.4499999999999
 20
51.89999999999998
 30
0.0
 40
2.0
100
AcDbArc
 50
0.0
 51
90.0
  0
ARC
  5
241
330
2FE
100
AcDbEntity
  8
DATA
  6
Continuous
 62
     7
100
AcDbCircle
 10
392.4499999999999
 20
48.10000000000002
 30
0.0
 40
2.0
100
AcDbArc
 50
270.0
 51
0.0
  0
LINE
  5
242
330
2FE
100
AcDbEntity
  8
DATA
  6
Continuous
 62
     7
100
AcDbLine
 10
392.4499999999999
 20
53.89999999999998
 30
0.0
 11
392.4499999999999
 21
46.10000000000002
 31
0.0
  0
LINE
  5
243
330
2FE
100
AcDbEntity
  8
DATA
  6
Continuous
 62
     7
100
AcDbLine
 10
384.0
 20
170.5
 30
0.0
 11
422.0
 21
170.5
 31
0.0
  0
LINE
  5
244
330
2FE
100
AcDbEntity
  8
DATA
  6
Continuous
 62
     7
100
AcDbLine
 10
422.0
 20
154.5
 30
0.0
 11
384.0
 21
154.5
 31
0.0
  0
LINE
  5
245
330
2FE
100
AcDbEntity
  8
DATA
  6
Continuous
 62
     7
100
AcDbLine
 10
419.0
 20
170.5
 30
0.0
 11
419.0
 21
154.5
 31
0.0
  0
LINE
  5
246
330
2FE
100
AcDbEntity
  8
DATA
  6
Continuous
 62
     7
100
AcDbLine
 10
387.0
 20
170.5
 30
0.0
 11
387.0
 21
154.5
 31
0.0
  0
ARC
  5
247
330
2FE
100
AcDbEntity
  8
DATA
  6
Continuous
 62
     7
100
AcDbCircle
 10
355.0
 20
160.75
 30
0.0
 40
8.249999999999987
100
AcDbArc
 50
291.323686263498
 51
225.3520922164707
  0
LWPOLYLINE
  5
248
330
2FE
100
AcDbEntity
  8
DATA
  6
Continuous
 62
     7
100
AcDbPolyline
 90
        4
 70
     0
 43
0.0
 10
430.4999999999999
 20
168.5
 10
430.4999999999999
 20
152.5
 10
375.0
 20
152.5
 10
375.0
 20
168.5
  0
LWPOLYLINE
  5
24F
330
2FE
100
AcDbEntity
  8
DATA
  6
Continuous
 62
     7
100
AcDbPolyline
 90
        4
 70
     0
 43
0.0
 10
375.0
 20
180.5
 10
375.0
 20
182.0
 10
430.4999999999999
 20
182.0
 10
430.4999999999999
 20
180.5
  0
LINE
  5
256
330
2FE
100
AcDbEntity
  8
DATA
  6
Continuous
 62
     7
100
AcDbLine
 10
242.0
 20
231.38
 30
0.0
 11
237.5
 21
226.88
 31
0.0
  0
LINE
  5
257
330
2FE
100
AcDbEntity
  8
DATA
  6
Continuous
 62
     7
100
AcDbLine
 10
237.5
 20
231.38
 30
0.0
 11
242.0
 21
231.38
 31
0.0
  0
LWPOLYLINE
  5
258
330
2FE
100
AcDbEntity
  8
DATA
  6
Continuous
 62
     7
100
AcDbPolyline
 90
        4
 70
     1
 43
0.0
 10
422.5646447451103
 20
-212.5
 10
527.5646447451102
 20
-212.5
 10
527.5646447451102
 20
-292.5
 10
422.5646447451103
 20
-292.5
  0
LINE
  5
25F
330
2FE
100
AcDbEntity
  8
DATA
  6
Continuous
 62
     7
100
AcDbLine
 10
445.0646447451104
 20
-245.0
 30
0.0
 11
430.0646447451104
 21
-245.0
 31
0.0
  0
LINE
  5
260
330
2FE
100
AcDbEntity
  8
DATA
  6
Continuous
 62
     7
100
AcDbLine
 10
430.0646447451104
 20
-230.0
 30
0.0
 11
445.0646447451104
 21
-230.0
 31
0.0
  0
LWPOLYLINE
  5
261
330
2FE
100
AcDbEntity
  8
DATA
  6
Continuous
 62
     7
100
AcDbPolyline
 90
        4
 70
     1
 43
0.0
 10
430.0646447451104
 20
-225.0
 10
445.0646447451104
 20
-225.0
 10
445.0646447451104
 20
-257.5
 10
430.0646447451104
 20
-257.5
  0
LINE
  5
268
330
2FE
100
AcDbEntity
  8
DATA
  6
Continuous
 62
     7
100
AcDbLine
 10
470.0646447451104
 20
-245.0
 30
0.0
 11
455.0646447451104
 21
-245.0
 31
0.0
  0
LINE
  5
269
330
2FE
100
AcDbEntity
  8
DATA
  6
Continuous
 62
     7
100
AcDbLine
 10
455.0646447451104
 20
-230.0
 30
0.0
 11
470.0646447451104
 21
-230.0
 31
0.0
  0
LWPOLYLINE
  5
26A
330
2FE
100
AcDbEntity
  8
DATA
  6
Continuous
 62
     7
100
AcDbPolyline
 90
        4
 70
     1
 43
0.0
 10
455.0646447451104
 20
-225.0
 10
470.0646447451104
 20
-225.0
 10
470.0646447451104
 20
-257.5
 10
455.0646447451104
 20
-257.5
  0
LINE
  5
271
330
2FE
100
AcDbEntity
  8
DATA
  6
Continuous
 62
     7
100
AcDbLine
 10
495.0646447451104
 20
-245.0
 30
0.0
 11
480.0646447451104
 21
-245.0
 31
0.0
  0
LINE
  5
272
330
2FE
100
AcDbEntity
  8
DATA
  6
Continuous
 62
     7
100
AcDbLine
 10
480.0646447451104
 20
-230.0
 30
0.0
 11
495.0646447451104
 21
-230.0
 31
0.0
  0
LWPOLYLINE
  5
273
330
2FE
100
AcDbEntity
  8
DATA
  6
Continuous
 62
     7
100
AcDbPolyline
 90
        4
 70
     1
 43
0.0
 10
480.0646447451104
 20
-225.0
 10
495.0646447451104
 20
-225.0
 10
495.0646447451104
 20
-257.5
 10
480.0646447451104
 20
-257.5
  0
LINE
  5
27A
330
2FE
100
AcDbEntity
  8
DATA
  6
Continuous
 62
     7
100
AcDbLine
 10
520.0646447451102
 20
-245.0
 30
0.0
 11
505.0646447451104
 21
-245.0
 31
0.0
  0
LINE
  5
27B
330
2FE
100
AcDbEntity
  8
DATA
  6
Continuous
 62
     7
100
AcDbLine
 10
505.0646447451104
 20
-230.0
 30
0.0
 11
520.0646447451102
 21
-230.0
 31
0.0
  0
LWPOLYLINE
  5
27C
330
2FE
100
AcDbEntity
  8
DATA
  6
Continuous
 62
     7
100
AcDbPolyline
 90
        4
 70
     1
 43
0.0
 10
505.0646447451104
 20
-225.0
 10
520.0646447451102
 20
-225.0
 10
520.0646447451102
 20
-257.5
 10
505.0646447451104
 20
-257.5
  0
TEXT
  5
283
330
2FE
100
AcDbEntity
  8
DATA
 62
     7
100
AcDbText
 10
458.154922522888
 20
-281.3499999999993
 30
0.0
 40
13.57367621527778
  1
2
 41
0.7
 11
458.154922522888
 21
-267.7763237847215
 31
0.0
100
AcDbText
 73
     3
  0
TEXT
  5
284
330
2FE
100
AcDbEntity
  8
DATA
 62
     7
100
AcDbText
 10
433.154922522888
 20
-281.3499999999993
 30
0.0
 40
13.57367621527778
  1
1
 41
0.7
 11
433.154922522888
 21
-267.7763237847215
 31
0.0
100
AcDbText
 73
     3
  0
TEXT
  5
285
330
2FE
100
AcDbEntity
  8
DATA
 62
     7
100
AcDbText
 10
483.154922522888
 20
-281.3499999999993
 30
0.0
 40
13.57367621527778
  1
3
 41
0.7
 11
483.154922522888
 21
-267.7763237847215
 31
0.0
100
AcDbText
 73
     3
  0
TEXT
  5
286
330
2FE
100
AcDbEntity
  8
DATA
 62
     7
100
AcDbText
 10
508.154922522888
 20
-281.3499999999993
 30
0.0
 40
13.57367621527778
  1
4
 41
0.7
 11
508.154922522888
 21
-267.7763237847215
 31
0.0
100
AcDbText
 73
     3
  0
TEXT
  5
287
330
2FE
100
AcDbEntity
  8
DATA
 62
     7
100
AcDbText
 10
408.9188114117772
 20
-308.8499999999993
 30
0.0
 40
13.57367621527778
  1
IN+OUT+ OUT-IN-
 41
0.7
 11
408.9188114117772
 21
-295.2763237847215
 31
0.0
100
AcDbText
 73
     3
  0
TEXT
  5
288
330
2FE
100
AcDbEntity
  8
DATA
 62
     7
100
AcDbText
 10
448.1435202514761
 20
-344.2868381076389
 30
0.0
 40
13.57367621527778
  1
端子拡大図
 41
0.7
 72
     1
 11
475.0646447451104
 21
-337.5
 31
0.0
100
AcDbText
 73
     2
  0
LINE
  5
289
330
2FE
100
AcDbEntity
  8
DATA
  6
Continuous
 62
     7
100
AcDbLine
 10
425.4207571699772
 20
-350.0
 30
0.0
 11
524.5792428300226
 21
-350.0
 31
0.0
  0
TEXT
  5
28A
330
2FE
100
AcDbEntity
  8
DATA
 62
     7
100
AcDbText
 10
283.2435380093606
 20
-418.8892072430695
 30
0.0
 40
8.144205729166666
  1
天井埋込用同軸2-Wayフルレンジ・トランスデューサー
 41
0.7
 11
283.2435380093606
 21
-410.7450015139027
 31
0.0
100
AcDbText
 73
     3
  0
TEXT
  5
28B
330
2FE
100
AcDbEntity
  8
DATA
 62
     7
100
AcDbText
 10
-340.0648314276118
 20
-458.9660496548447
 30
0.0
 40
9.501573350694446
  1
※仕様及び外観は予告なく変更されることがあります。
 41
0.7
 11
-340.0648314276118
 21
-449.4644763041502
 31
0.0
100
AcDbText
 73
     3
  0
TEXT
  5
28C
330
2FE
100
AcDbEntity
  8
DATA
 62
     7
100
AcDbText
 10
-340.0648314276118
 20
-471.3132718770668
 30
0.0
 40
9.501573350694446
  1
　また、同一商品でも若干の個体差があることがあります。ご了承ください。
 41
0.7
 11
-340.0648314276118
 21
-461.8116985263723
 31
0.0
100
AcDbText
 73
     3
  0
TEXT
  5
28D
330
2FE
100
AcDbEntity
  8
DATA
 62
     7
100
AcDbText
 10
349.253771013512
 20
-402.4109011348839
 30
0.0
 40
12.21630859375
  1
JBL PROFESSIONAL
 41
0.7
 11
349.253771013512
 21
-390.1945925411339
 31
0.0
100
AcDbText
 73
     3
  0
ENDSEC
  0
SECTION
  2
OBJECTS
  0
DICTIONARY
  5
29B
330
0
100
AcDbDictionary
281
     1
  3
ACAD_CIP_PREVIOUS_PRODUCT_INFO
350
316
  3
ACAD_COLOR
350
2F1
  3
ACAD_DETAILVIEWSTYLE
350
2F8
  3
ACAD_GROUP
350
29C
  3
ACAD_LAYOUT
350
2F0
  3
ACAD_MATERIAL
350
29F
  3
ACAD_MLEADERSTYLE
350
2F4
  3
ACAD_MLINESTYLE
350
2ED
  3
ACAD_PLOTSETTINGS
350
2EF
  3
ACAD_PLOTSTYLENAME
350
29D
  3
ACAD_SCALELIST
350
2D1
  3
ACAD_SECTIONVIEWSTYLE
350
2F6
  3
ACAD_TABLESTYLE
350
2F2
  3
ACAD_VISUALSTYLE
350
2B8
  3
ACDB_RECOMPOSE_DATA
350
32E
  3
AcDbVariableDictionary
350
321
  3
DWGPROPS
350
32F
  0
DICTIONARY
  5
317
330
2E3
100
AcDbDictionary
280
     1
281
     1
  3
ADSK_XREC_LAYER_RECONCILED
360
318
  0
DICTIONARY
  5
319
330
302
100
AcDbDictionary
280
     1
281
     1
  3
ADSK_XREC_LAYER_RECONCILED
360
31A
  0
DICTIONARY
  5
31B
330
30E
100
AcDbDictionary
280
     1
281
     1
  3
ADSK_XREC_LAYER_RECONCILED
360
31C
  0
DICTIONARY
  5
31D
330
30F
100
AcDbDictionary
280
     1
281
     1
  3
ADSK_XREC_LAYER_RECONCILED
360
31E
  0
DICTIONARY
  5
31F
330
310
100
AcDbDictionary
280
     1
281
     1
  3
ADSK_XREC_LAYER_RECONCILED
360
320
  0
XRECORD
  5
316
102
{ACAD_REACTORS
330
29B
102
}
330
29B
100
AcDbXrecord
280
     1
300
ACDLT
300
2017
300
ACDLT_F_S
  0
DICTIONARY
  5
2F1
102
{ACAD_REACTORS
330
29B
102
}
330
29B
100
AcDbDictionary
281
     1
  0
DICTIONARY
  5
2F8
102
{ACAD_REACTORS
330
29B
102
}
330
29B
100
AcDbDictionary
281
     1
  3
Imperial24
350
2F9
  0
DICTIONARY
  5
29C
102
{ACAD_REACTORS
330
29B
102
}
330
29B
100
AcDbDictionary
281
     1
  0
DICTIONARY
  5
2F0
102
{ACAD_REACTORS
330
29B
102
}
330
29B
100
AcDbDictionary
281
     1
  3
Model
350
301
  3
レイアウト1
350
2FD
  0
DICTIONARY
  5
29F
102
{ACAD_REACTORS
330
29B
102
}
330
29B
100
AcDbDictionary
281
     1
  3
ByBlock
350
2A8
  3
ByLayer
350
2A0
  3
Global
350
2B0
  0
DICTIONARY
  5
2F4
102
{ACAD_REACTORS
330
29B
102
}
330
29B
100
AcDbDictionary
281
     1
  3
Standard
350
2F5
  0
DICTIONARY
  5
2ED
102
{ACAD_REACTORS
330
29B
102
}
330
29B
100
AcDbDictionary
281
     1
  3
Standard
350
2EE
  0
DICTIONARY
  5
2EF
102
{ACAD_REACTORS
330
29B
102
}
330
29B
100
AcDbDictionary
281
     1
  0
ACDBDICTIONARYWDFLT
  5
29D
102
{ACAD_REACTORS
330
29B
102
}
330
29B
100
AcDbDictionary
281
     1
  3
Normal
350
29E
100
AcDbDictionaryWithDefault
340
29E
  0
DICTIONARY
  5
2D1
102
{ACAD_REACTORS
330
29B
102
}
330
29B
100
AcDbDictionary
281
     1
  3
A0
350
2D2
  3
A1
350
2D3
  3
A2
350
2D4
  3
A3
350
2D5
  3
A4
350
2D6
  3
A5
350
2D7
  3
A6
350
2D8
  3
A7
350
2D9
  3
A8
350
2DA
  3
A9
350
2DB
  3
B0
350
2DC
  3
B1
350
2DD
  3
B2
350
2DE
  3
B3
350
2DF
  3
B4
350
2E0
  3
B5
350
2E1
  3
B6
350
2E2
  0
DICTIONARY
  5
2F6
102
{ACAD_REACTORS
330
29B
102
}
330
29B
100
AcDbDictionary
281
     1
  3
Imperial24
350
2F7
  0
DICTIONARY
  5
2F2
102
{ACAD_REACTORS
330
29B
102
}
330
29B
100
AcDbDictionary
281
     1
  3
Standard
350
2F3
  0
DICTIONARY
  5
2B8
102
{ACAD_REACTORS
330
29B
102
}
330
29B
100
AcDbDictionary
281
     1
  3
2dWireframe
350
2BE
  3
Basic
350
2BD
  3
Brighten
350
2C4
  3
ColorChange
350
2C8
  3
Conceptual
350
2C1
  3
Dim
350
2C3
  3
EdgeColorOff
350
2D0
  3
Facepattern
350
2C7
  3
Flat
350
2B9
  3
FlatWithEdges
350
2BA
  3
Gouraud
350
2BB
  3
GouraudWithEdges
350
2BC
  3
Hidden
350
2C0
  3
JitterOff
350
2CE
  3
Linepattern
350
2C6
  3
OverhangOff
350
2CF
  3
Realistic
350
2C2
  3
Shaded
350
2CD
  3
Shaded with edges
350
2CC
  3
Shades of Gray
350
2C9
  3
Sketchy
350
2CA
  3
Thicken
350
2C5
  3
Wireframe
350
2BF
  3
X-Ray
350
2CB
  0
XRECORD
  5
32E
102
{ACAD_REACTORS
330
29B
102
}
330
29B
100
AcDbXrecord
280
     1
 90
        1
330
2F3
  0
DICTIONARY
  5
321
102
{ACAD_REACTORS
330
29B
102
}
330
29B
100
AcDbDictionary
281
     1
  3
CANNOSCALE
350
326
  3
CMLEADERSTYLE
350
323
  3
CTABLESTYLE
350
322
  3
CVIEWDETAILSTYLE
350
324
  3
CVIEWSECTIONSTYLE
350
325
  3
DIMASSOC
350
329
  3
INDEXCTL
350
328
  3
SORTENTS
350
327
  3
XCLIPFRAME
350
32A
  0
XRECORD
  5
32F
102
{ACAD_REACTORS
330
29B
102
}
330
29B
100
AcDbXrecord
280
     1
  1
DWGPROPS COOKIE
  2

  3

  4

  6

  7

  8
sasaki_n
  9

300
=
301
=
302
=
303
=
304
=
305
=
306
=
307
=
308
=
309
=
 40
0.0002893518518519
 41
2457823.470682871
 42
2457823.481921296
  1

 90
        0
  0
XRECORD
  5
318
102
{ACAD_REACTORS
330
317
102
}
330
317
100
AcDbXrecord
280
     1
290
     1
  0
XRECORD
  5
31A
102
{ACAD_REACTORS
330
319
102
}
330
319
100
AcDbXrecord
280
     1
290
     1
  0
XRECORD
  5
31C
102
{ACAD_REACTORS
330
31B
102
}
330
31B
100
AcDbXrecord
280
     1
290
     1
  0
XRECORD
  5
31E
102
{ACAD_REACTORS
330
31D
102
}
330
31D
100
AcDbXrecord
280
     1
290
     1
  0
XRECORD
  5
320
102
{ACAD_REACTORS
330
31F
102
}
330
31F
100
AcDbXrecord
280
     1
290
     1
  0
ACDBDETAILVIEWSTYLE
  5
2F9
102
{ACAD_XDICTIONARY
360
367
102
}
102
{ACAD_REACTORS
330
2F8
102
}
330
2F8
100
AcDbModelDocViewStyle
 70
     0
  3
Imperial24
290
     0
100
AcDbDetailViewStyle
 70
     0
 71
     0
 90
        3
 71
     1
340
2E4
 40
0.24
340
0
 40
0.24
300

 40
0.36
280
     3
 71
     2
340
2EB
 90
       25
 71
     3
340
2E4
 40
0.24
 90
        1
 40
0.75
 90
        1
300
%<\AcVar ViewType \f "%tc1">% %<\AcVar ViewDetailId>%\PSCALE %<\AcVar ViewScale \f "%sn">%
 71
     4
340
2EB
 90
       25
340
2EB
 90
       25
280
     0
  0
LAYOUT
  5
301
102
{ACAD_XDICTIONARY
360
36B
102
}
102
{ACAD_REACTORS
330
2F0
102
}
330
2F0
100
AcDbPlotSettings
  1

  2
DocuPrint 3000-2
  4

  6

 40
0.0
 41
0.0
 42
0.0
 43
0.0
 44
0.0
 45
0.0
 46
0.0
 47
0.0
 48
0.0
 49
0.0
140
0.0
141
0.0
142
1.0
143
1.0
 70
  1712
 72
     0
 73
     0
 74
     0
  7

 75
     0
147
1.0
148
0.0
149
0.0
100
AcDbLayout
  1
Model
 70
     1
 71
     0
 10
0.0
 20
0.0
 11
12.0
 21
9.0
 12
0.0
 22
0.0
 32
0.0
 14
0.0
 24
0.0
 34
0.0
 15
0.0
 25
0.0
 35
0.0
146
0.0
 13
0.0
 23
0.0
 33
0.0
 16
1.0
 26
0.0
 36
0.0
 17
0.0
 27
1.0
 37
0.0
 76
     0
330
2FE
331
303
  0
LAYOUT
  5
2FD
102
{ACAD_XDICTIONARY
360
369
102
}
102
{ACAD_REACTORS
330
2F0
102
}
330
2F0
100
AcDbPlotSettings
  1

  2
DocuPrint 3000-2
  4

  6

 40
0.0
 41
0.0
 42
0.0
 43
0.0
 44
0.0
 45
0.0
 46
0.0
 47
0.0
 48
0.0
 49
0.0
140
0.0
141
0.0
142
1.0
143
1.0
 70
   688
 72
     0
 73
     0
 74
     5
  7

 75
    16
147
1.0
148
0.0
149
0.0
100
AcDbLayout
  1
レイアウト1
 70
     0
 71
     1
 10
0.0
 20
0.0
 11
12.0
 21
9.0
 12
0.0
 22
0.0
 32
0.0
 14
1.000000000000000E+20
 24
1.000000000000000E+20
 34
1.000000000000000E+20
 15
-1.000000000000000E+20
 25
-1.000000000000000E+20
 35
-1.000000000000000E+20
146
0.0
 13
0.0
 23
0.0
 33
0.0
 16
1.0
 26
0.0
 36
0.0
 17
0.0
 27
1.0
 37
0.0
 76
     0
330
2FA
  0
MATERIAL
  5
2A8
102
{ACAD_XDICTIONARY
360
2A9
102
}
102
{ACAD_REACTORS
330
29F
102
}
330
29F
100
AcDbMaterial
  1
ByBlock
 72
     0
 43
0.0208333333333333
 43
0.0
 43
0.0
 43
0.0
 43
0.0
 43
0.0208333333333333
 43
0.0
 43
0.0
 43
0.0
 43
0.0
 43
1.0
 43
0.0
 43
0.0
 43
0.0
 43
0.0
 43
1.0
 77
     0
 47
0.0208333333333333
 47
0.0
 47
0.0
 47
0.0
 47
0.0
 47
0.0208333333333333
 47
0.0
 47
0.0
 47
0.0
 47
0.0
 47
1.0
 47
0.0
 47
0.0
 47
0.0
 47
0.0
 47
1.0
171
     0
 49
0.0208333333333333
 49
0.0
 49
0.0
 49
0.0
 49
0.0
 49
0.0208333333333333
 49
0.0
 49
0.0
 49
0.0
 49
0.0
 49
1.0
 49
0.0
 49
0.0
 49
0.0
 49
0.0
 49
1.0
175
     0
142
0.0208333333333333
142
0.0
142
0.0
142
0.0
142
0.0
142
0.0208333333333333
142
0.0
142
0.0
142
0.0
142
0.0
142
1.0
142
0.0
142
0.0
142
0.0
142
0.0
142
1.0
179
     0
144
0.0208333333333333
144
0.0
144
0.0
144
0.0
144
0.0
144
0.0208333333333333
144
0.0
144
0.0
144
0.0
144
0.0
144
1.0
144
0.0
144
0.0
144
0.0
144
0.0
144
1.0
147
0.0208333333333333
147
0.0
147
0.0
147
0.0
147
0.0
147
0.0208333333333333
147
0.0
147
0.0
147
0.0
147
0.0
147
1.0
147
0.0
147
0.0
147
0.0
147
0.0
147
1.0
  0
MATERIAL
  5
2A0
102
{ACAD_XDICTIONARY
360
2A1
102
}
102
{ACAD_REACTORS
330
29F
102
}
330
29F
100
AcDbMaterial
  1
ByLayer
 72
     0
 43
0.0208333333333333
 43
0.0
 43
0.0
 43
0.0
 43
0.0
 43
0.0208333333333333
 43
0.0
 43
0.0
 43
0.0
 43
0.0
 43
1.0
 43
0.0
 43
0.0
 43
0.0
 43
0.0
 43
1.0
 77
     0
 47
0.0208333333333333
 47
0.0
 47
0.0
 47
0.0
 47
0.0
 47
0.0208333333333333
 47
0.0
 47
0.0
 47
0.0
 47
0.0
 47
1.0
 47
0.0
 47
0.0
 47
0.0
 47
0.0
 47
1.0
171
     0
 49
0.0208333333333333
 49
0.0
 49
0.0
 49
0.0
 49
0.0
 49
0.0208333333333333
 49
0.0
 49
0.0
 49
0.0
 49
0.0
 49
1.0
 49
0.0
 49
0.0
 49
0.0
 49
0.0
 49
1.0
175
     0
142
0.0208333333333333
142
0.0
142
0.0
142
0.0
142
0.0
142
0.0208333333333333
142
0.0
142
0.0
142
0.0
142
0.0
142
1.0
142
0.0
142
0.0
142
0.0
142
0.0
142
1.0
179
     0
144
0.0208333333333333
144
0.0
144
0.0
144
0.0
144
0.0
144
0.0208333333333333
144
0.0
144
0.0
144
0.0
144
0.0
144
1.0
144
0.0
144
0.0
144
0.0
144
0.0
144
1.0
147
0.0208333333333333
147
0.0
147
0.0
147
0.0
147
0.0
147
0.0208333333333333
147
0.0
147
0.0
147
0.0
147
0.0
147
1.0
147
0.0
147
0.0
147
0.0
147
0.0
147
1.0
  0
MATERIAL
  5
2B0
102
{ACAD_XDICTIONARY
360
2B1
102
}
102
{ACAD_REACTORS
330
29F
102
}
330
29F
100
AcDbMaterial
  1
Global
 72
     0
 43
0.0208333333333333
 43
0.0
 43
0.0
 43
0.0
 43
0.0
 43
0.0208333333333333
 43
0.0
 43
0.0
 43
0.0
 43
0.0
 43
1.0
 43
0.0
 43
0.0
 43
0.0
 43
0.0
 43
1.0
 77
     0
 47
0.0208333333333333
 47
0.0
 47
0.0
 47
0.0
 47
0.0
 47
0.0208333333333333
 47
0.0
 47
0.0
 47
0.0
 47
0.0
 47
1.0
 47
0.0
 47
0.0
 47
0.0
 47
0.0
 47
1.0
171
     0
 49
0.0208333333333333
 49
0.0
 49
0.0
 49
0.0
 49
0.0
 49
0.0208333333333333
 49
0.0
 49
0.0
 49
0.0
 49
0.0
 49
1.0
 49
0.0
 49
0.0
 49
0.0
 49
0.0
 49
1.0
175
     0
142
0.0208333333333333
142
0.0
142
0.0
142
0.0
142
0.0
142
0.0208333333333333
142
0.0
142
0.0
142
0.0
142
0.0
142
1.0
142
0.0
142
0.0
142
0.0
142
0.0
142
1.0
179
     0
144
0.0208333333333333
144
0.0
144
0.0
144
0.0
144
0.0
144
0.0208333333333333
144
0.0
144
0.0
144
0.0
144
0.0
144
1.0
144
0.0
144
0.0
144
0.0
144
0.0
144
1.0
147
0.0208333333333333
147
0.0
147
0.0
147
0.0
147
0.0
147
0.0208333333333333
147
0.0
147
0.0
147
0.0
147
0.0
147
1.0
147
0.0
147
0.0
147
0.0
147
0.0
147
1.0
  0
MLEADERSTYLE
  5
2F5
102
{ACAD_REACTORS
330
2F4
102
}
330
2F4
100
AcDbMLeaderStyle
170
     2
171
     1
172
     0
 90
        2
 40
0.0
 41
0.0
173
     1
 91
-1056964608
340
2E9
 92
       -2
290
     1
 42
0.09
291
     1
 43
0.36
  3
Standard
 44
0.18
300

342
2E4
174
     1
178
     6
175
     1
176
     0
 93
-1056964608
 45
0.18
292
     0
297
     0
 46
0.18
 94
-1056964608
 47
1.0
 49
1.0
140
1.0
293
     1
141
0.0
294
     1
177
     0
142
1.0
295
     0
296
     0
143
0.125
1001
ACAD_MLEADERVER
1070
     2
  0
MLINESTYLE
  5
2EE
102
{ACAD_REACTORS
330
2ED
102
}
330
2ED
100
AcDbMlineStyle
  2
STANDARD
 70
     0
  3

 62
   256
 51
90.0
 52
90.0
 71
     2
 49
0.5
 62
   256
  6
BYLAYER
 49
-0.5
 62
   256
  6
BYLAYER
  0
ACDBPLACEHOLDER
  5
29E
102
{ACAD_REACTORS
330
29D
102
}
330
29D
  0
SCALE
  5
2D2
102
{ACAD_REACTORS
330
2D1
102
}
330
2D1
100
AcDbScale
 70
     0
300
1:1
140
1.0
141
1.0
290
     1
  0
SCALE
  5
2D3
102
{ACAD_REACTORS
330
2D1
102
}
330
2D1
100
AcDbScale
 70
     0
300
1/128" = 1'-0"
140
0.0078125
141
12.0
290
     0
  0
SCALE
  5
2D4
102
{ACAD_REACTORS
330
2D1
102
}
330
2D1
100
AcDbScale
 70
     0
300
1/64" = 1'-0"
140
0.015625
141
12.0
290
     0
  0
SCALE
  5
2D5
102
{ACAD_REACTORS
330
2D1
102
}
330
2D1
100
AcDbScale
 70
     0
300
1/32" = 1'-0"
140
0.03125
141
12.0
290
     0
  0
SCALE
  5
2D6
102
{ACAD_REACTORS
330
2D1
102
}
330
2D1
100
AcDbScale
 70
     0
300
1/16" = 1'-0"
140
0.0625
141
12.0
290
     0
  0
SCALE
  5
2D7
102
{ACAD_REACTORS
330
2D1
102
}
330
2D1
100
AcDbScale
 70
     0
300
3/32" = 1'-0"
140
0.09375
141
12.0
290
     0
  0
SCALE
  5
2D8
102
{ACAD_REACTORS
330
2D1
102
}
330
2D1
100
AcDbScale
 70
     0
300
1/8" = 1'-0"
140
0.125
141
12.0
290
     0
  0
SCALE
  5
2D9
102
{ACAD_REACTORS
330
2D1
102
}
330
2D1
100
AcDbScale
 70
     0
300
3/16" = 1'-0"
140
0.1875
141
12.0
290
     0
  0
SCALE
  5
2DA
102
{ACAD_REACTORS
330
2D1
102
}
330
2D1
100
AcDbScale
 70
     0
300
1/4" = 1'-0"
140
0.25
141
12.0
290
     0
  0
SCALE
  5
2DB
102
{ACAD_REACTORS
330
2D1
102
}
330
2D1
100
AcDbScale
 70
     0
300
3/8" = 1'-0"
140
0.375
141
12.0
290
     0
  0
SCALE
  5
2DC
102
{ACAD_REACTORS
330
2D1
102
}
330
2D1
100
AcDbScale
 70
     0
300
1/2" = 1'-0"
140
0.5
141
12.0
290
     0
  0
SCALE
  5
2DD
102
{ACAD_REACTORS
330
2D1
102
}
330
2D1
100
AcDbScale
 70
     0
300
3/4" = 1'-0"
140
0.75
141
12.0
290
     0
  0
SCALE
  5
2DE
102
{ACAD_REACTORS
330
2D1
102
}
330
2D1
100
AcDbScale
 70
     0
300
1" = 1'-0"
140
1.0
141
12.0
290
     0
  0
SCALE
  5
2DF
102
{ACAD_REACTORS
330
2D1
102
}
330
2D1
100
AcDbScale
 70
     0
300
1-1/2" = 1'-0"
140
1.5
141
12.0
290
     0
  0
SCALE
  5
2E0
102
{ACAD_REACTORS
330
2D1
102
}
330
2D1
100
AcDbScale
 70
     0
300
3" = 1'-0"
140
3.0
141
12.0
290
     0
  0
SCALE
  5
2E1
102
{ACAD_REACTORS
330
2D1
102
}
330
2D1
100
AcDbScale
 70
     0
300
6" = 1'-0"
140
6.0
141
12.0
290
     0
  0
SCALE
  5
2E2
102
{ACAD_REACTORS
330
2D1
102
}
330
2D1
100
AcDbScale
 70
     0
300
1'-0" = 1'-0"
140
12.0
141
12.0
290
     0
  0
ACDBSECTIONVIEWSTYLE
  5
2F7
102
{ACAD_XDICTIONARY
360
365
102
}
102
{ACAD_REACTORS
330
2F6
102
}
330
2F6
100
AcDbModelDocViewStyle
 70
     0
  3
Imperial24
290
     0
100
AcDbSectionViewStyle
 70
     0
 71
     0
 90
       78
 71
     1
340
2E4
 40
0.24
340
0
340
0
 40
0.24
300
I, O, Q, S, X, Z
 40
0.48
 90
        3
 40
0.18
 90
        1
 71
     2
340
2EB
 90
       25
340
2EB
 90
       50
 40
0.24
 40
0.0
 40
0.24
 71
     3
340
2E4
 40
0.24
 90
        1
 40
0.75
 90
        1
300
%<\AcVar ViewType \f "%tc1">% %<\AcVar ViewSectionStartId>%-%<\AcVar ViewSectionEndId>%\PSCALE %<\AcVar ViewScale \f "%sn">%
 71
     4
300
ANSI31
 40
1.0
 90
        0
290
     0
290
     0
 90
        6
 40
0.0
 40
1.570796326794896
 40
0.2617993877991494
 40
1.308996938995747
 40
-0.2617993877991494
 40
1.832595714594046
  0
TABLESTYLE
  5
2F3
102
{ACAD_XDICTIONARY
360
32C
102
}
102
{ACAD_REACTORS
330
2F2
102
}
330
2F2
100
AcDbTableStyle
  3
Standard
 70
     0
 71
     0
 40
0.06
 41
0.06
280
     0
281
     0
  7
STANDARD
140
0.18
170
     2
 62
     0
 63
     7
283
     0
274
    -2
284
     1
 64
     0
275
    -2
285
     1
 65
     0
276
    -2
286
     1
 66
     0
277
    -2
287
     1
 67
     0
278
    -2
288
     1
 68
     0
279
    -2
289
     1
 69
     0
  7
STANDARD
140
0.25
170
     5
 62
     0
 63
     7
283
     0
274
    -2
284
     1
 64
     0
275
    -2
285
     1
 65
     0
276
    -2
286
     1
 66
     0
277
    -2
287
     1
 67
     0
278
    -2
288
     1
 68
     0
279
    -2
289
     1
 69
     0
  7
STANDARD
140
0.18
170
     5
 62
     0
 63
     7
283
     0
274
    -2
284
     1
 64
     0
275
    -2
285
     1
 65
     0
276
    -2
286
     1
 66
     0
277
    -2
287
     1
 67
     0
278
    -2
288
     1
 68
     0
279
    -2
289
     1
 69
     0
  0
VISUALSTYLE
  5
2BE
102
{ACAD_XDICTIONARY
360
33D
102
}
102
{ACAD_REACTORS
330
2B8
102
}
330
2B8
100
AcDbVisualStyle
  2
2dWireframe
 70
     4
 71
     0
 72
     2
 73
     0
 90
        0
 40
-0.6
 41
-30.0
 62
     5
 63
     7
 74
     1
 91
        4
 64
     7
 65
   257
 75
     1
175
     1
 42
1.0
 92
        0
 66
   257
 43
1.0
 76
     1
 77
     6
 78
     2
 67
     7
 79
     5
170
     0
171
     0
290
     0
174
     0
 93
        1
 44
0.0
173
     0
291
     0
 45
0.0
1001
ACAD
1000
AcDbSavedByObjectVersion
1070
     0
  0
VISUALSTYLE
  5
2BD
102
{ACAD_XDICTIONARY
360
33B
102
}
102
{ACAD_REACTORS
330
2B8
102
}
330
2B8
100
AcDbVisualStyle
  2
Basic
 70
     7
 71
     1
 72
     0
 73
     1
 90
        0
 40
-0.6
 41
-30.0
 62
     5
 63
     7
 74
     0
 91
        4
 64
     7
 65
   257
 75
     1
175
     1
 42
1.0
 92
        8
 66
     7
 43
1.0
 76
     1
 77
     6
 78
     2
 67
     7
 79
     5
170
     0
171
     0
290
     0
174
     0
 93
        1
 44
0.0
173
     0
291
     1
 45
0.0
1001
ACAD
1000
AcDbSavedByObjectVersion
1070
     0
  0
VISUALSTYLE
  5
2C4
102
{ACAD_XDICTIONARY
360
349
102
}
102
{ACAD_REACTORS
330
2B8
102
}
330
2B8
100
AcDbVisualStyle
  2
Brighten
 70
    12
 71
     2
 72
     2
 73
     0
 90
        0
 40
-0.6
 41
-30.0
 62
     5
 63
     7
 74
     1
 91
        4
 64
     7
 65
   257
 75
     1
175
     1
 42
1.0
 92
        8
 66
     7
 43
1.0
 76
     1
 77
     6
 78
     2
 67
     7
 79
     5
170
     0
171
     0
290
     0
174
     0
 93
        1
 44
50.0
173
     0
291
     1
 45
0.0
1001
ACAD
1000
AcDbSavedByObjectVersion
1070
     0
  0
VISUALSTYLE
  5
2C8
102
{ACAD_XDICTIONARY
360
351
102
}
102
{ACAD_REACTORS
330
2B8
102
}
330
2B8
100
AcDbVisualStyle
  2
ColorChange
 70
    16
 71
     2
 72
     2
 73
     3
 90
        0
 40
-0.6
 41
-30.0
 62
     5
 63
     8
 74
     1
 91
        4
 64
     7
 65
   257
 75
     1
175
     1
 42
1.0
 92
        8
 66
     8
 43
1.0
 76
     1
 77
     6
 78
     2
 67
     7
 79
     5
170
     0
171
     0
290
     0
174
     0
 93
        1
 44
0.0
173
     0
291
     1
 45
0.0
1001
ACAD
1000
AcDbSavedByObjectVersion
1070
     0
  0
VISUALSTYLE
  5
2C1
102
{ACAD_XDICTIONARY
360
343
102
}
102
{ACAD_REACTORS
330
2B8
102
}
330
2B8
100
AcDbVisualStyle
  2
Conceptual
 70
     9
 71
     3
 72
     2
 73
     0
 90
        0
 40
-0.6
 41
-30.0
 62
     5
 63
     7
 74
     2
 91
        2
 64
     7
 65
   257
 75
     1
175
     1
 42
179.0
 92
        8
 66
     7
 43
1.0
 76
     1
 77
     6
 78
     2
 67
     7
 79
     3
170
     0
171
     0
290
     0
174
     0
 93
        1
 44
0.0
173
     0
291
     0
 45
0.0
1001
ACAD
1000
AcDbSavedByObjectVersion
1070
     0
  0
VISUALSTYLE
  5
2C3
102
{ACAD_XDICTIONARY
360
347
102
}
102
{ACAD_REACTORS
330
2B8
102
}
330
2B8
100
AcDbVisualStyle
  2
Dim
 70
    11
 71
     2
 72
     2
 73
     0
 90
        0
 40
-0.6
 41
-30.0
 62
     5
 63
     7
 74
     1
 91
        4
 64
     7
 65
   257
 75
     1
175
     1
 42
1.0
 92
        8
 66
     7
 43
1.0
 76
     1
 77
     6
 78
     2
 67
     7
 79
     5
170
     0
171
     0
290
     0
174
     0
 93
        1
 44
-50.0
173
     0
291
     1
 45
0.0
1001
ACAD
1000
AcDbSavedByObjectVersion
1070
     0
  0
VISUALSTYLE
  5
2D0
102
{ACAD_XDICTIONARY
360
361
102
}
102
{ACAD_REACTORS
330
2B8
102
}
330
2B8
100
AcDbVisualStyle
  2
EdgeColorOff
 70
    22
 71
     2
 72
     2
 73
     0
 90
        0
 40
-0.6
 41
-30.0
 62
     5
 63
     7
 74
     1
 91
        4
 64
     7
 65
   257
 75
     1
175
     1
 42
1.0
 92
        8
 66
     7
 43
1.0
 76
     1
 77
     6
 78
     2
 67
     7
 79
     5
170
     0
171
     0
290
     0
174
     0
 93
        1
 44
0.0
173
     0
291
     1
 45
0.0
1001
ACAD
1000
AcDbSavedByObjectVersion
1070
     0
  0
VISUALSTYLE
  5
2C7
102
{ACAD_XDICTIONARY
360
34F
102
}
102
{ACAD_REACTORS
330
2B8
102
}
330
2B8
100
AcDbVisualStyle
  2
Facepattern
 70
    15
 71
     2
 72
     2
 73
     0
 90
        0
 40
-0.6
 41
-30.0
 62
     5
 63
     7
 74
     1
 91
        4
 64
     7
 65
   257
 75
     1
175
     1
 42
1.0
 92
        8
 66
     7
 43
1.0
 76
     1
 77
     6
 78
     2
 67
     7
 79
     5
170
     0
171
     0
290
     0
174
     0
 93
        1
 44
0.0
173
     0
291
     1
 45
0.0
1001
ACAD
1000
AcDbSavedByObjectVersion
1070
     0
  0
VISUALSTYLE
  5
2B9
102
{ACAD_XDICTIONARY
360
333
102
}
102
{ACAD_REACTORS
330
2B8
102
}
330
2B8
100
AcDbVisualStyle
  2
Flat
 70
     0
 71
     2
 72
     1
 73
     1
 90
        2
 40
-0.6
 41
30.0
 62
     5
 63
     7
 74
     0
 91
        0
 64
     7
 65
   257
 75
     1
175
     1
 42
1.0
 92
        8
 66
     7
 43
1.0
 76
     1
 77
     6
 78
     2
 67
     7
 79
     5
170
     0
171
     0
290
     0
174
     0
 93
       13
 44
0.0
173
     0
291
     1
 45
0.0
1001
ACAD
1000
AcDbSavedByObjectVersion
1070
     0
  0
VISUALSTYLE
  5
2BA
102
{ACAD_XDICTIONARY
360
335
102
}
102
{ACAD_REACTORS
330
2B8
102
}
330
2B8
100
AcDbVisualStyle
  2
FlatWithEdges
 70
     1
 71
     2
 72
     1
 73
     1
 90
        2
 40
-0.6
 41
30.0
 62
     5
 63
     7
 74
     1
 91
        0
 64
     7
 65
   257
 75
     1
175
     1
 42
1.0
 92
        0
 66
   257
 43
1.0
 76
     1
 77
     6
 78
     2
 67
     7
 79
     5
170
     0
171
     0
290
     0
174
     0
 93
       13
 44
0.0
173
     0
291
     1
 45
0.0
1001
ACAD
1000
AcDbSavedByObjectVersion
1070
     0
  0
VISUALSTYLE
  5
2BB
102
{ACAD_XDICTIONARY
360
337
102
}
102
{ACAD_REACTORS
330
2B8
102
}
330
2B8
100
AcDbVisualStyle
  2
Gouraud
 70
     2
 71
     2
 72
     2
 73
     1
 90
        2
 40
-0.6
 41
30.0
 62
     5
 63
     7
 74
     0
 91
        0
 64
     7
 65
   257
 75
     1
175
     1
 42
1.0
 92
        0
 66
     7
 43
1.0
 76
     1
 77
     6
 78
     2
 67
     7
 79
     5
170
     0
171
     0
290
     0
174
     0
 93
       13
 44
0.0
173
     0
291
     1
 45
0.0
1001
ACAD
1000
AcDbSavedByObjectVersion
1070
     0
  0
VISUALSTYLE
  5
2BC
102
{ACAD_XDICTIONARY
360
339
102
}
102
{ACAD_REACTORS
330
2B8
102
}
330
2B8
100
AcDbVisualStyle
  2
GouraudWithEdges
 70
     3
 71
     2
 72
     2
 73
     1
 90
        2
 40
-0.6
 41
30.0
 62
     5
 63
     7
 74
     1
 91
        0
 64
     7
 65
   257
 75
     1
175
     1
 42
1.0
 92
        0
 66
   257
 43
1.0
 76
     1
 77
     6
 78
     2
 67
     7
 79
     5
170
     0
171
     0
290
     0
174
     0
 93
       13
 44
0.0
173
     0
291
     1
 45
0.0
1001
ACAD
1000
AcDbSavedByObjectVersion
1070
     0
  0
VISUALSTYLE
  5
2C0
102
{ACAD_XDICTIONARY
360
341
102
}
102
{ACAD_REACTORS
330
2B8
102
}
330
2B8
100
AcDbVisualStyle
  2
Hidden
 70
     6
 71
     1
 72
     2
 73
     2
 90
        0
 40
-0.6
 41
-30.0
 62
     5
 63
     7
 74
     2
 91
        2
 64
     7
 65
   257
 75
     2
175
     1
 42
40.0
 92
        0
 66
   257
 43
1.0
 76
     1
 77
     6
 78
     2
 67
     7
 79
     3
170
     0
171
     0
290
     0
174
     0
 93
        1
 44
0.0
173
     0
291
     0
 45
0.0
1001
ACAD
1000
AcDbSavedByObjectVersion
1070
     0
  0
VISUALSTYLE
  5
2CE
102
{ACAD_XDICTIONARY
360
35D
102
}
102
{ACAD_REACTORS
330
2B8
102
}
330
2B8
100
AcDbVisualStyle
  2
JitterOff
 70
    20
 71
     2
 72
     2
 73
     0
 90
        0
 40
-0.6
 41
-30.0
 62
     5
 63
     7
 74
     1
 91
        4
 64
     7
 65
   257
 75
     1
175
     1
 42
1.0
 92
       10
 66
     7
 43
1.0
 76
     1
 77
     6
 78
     2
 67
     7
 79
     5
170
     0
171
     0
290
     0
174
     0
 93
        1
 44
0.0
173
     0
291
     1
 45
0.0
1001
ACAD
1000
AcDbSavedByObjectVersion
1070
     0
  0
VISUALSTYLE
  5
2C6
102
{ACAD_XDICTIONARY
360
34D
102
}
102
{ACAD_REACTORS
330
2B8
102
}
330
2B8
100
AcDbVisualStyle
  2
Linepattern
 70
    14
 71
     2
 72
     2
 73
     0
 90
        0
 40
-0.6
 41
-30.0
 62
     5
 63
     7
 74
     1
 91
        4
 64
     7
 65
   257
 75
     7
175
     7
 42
1.0
 92
        8
 66
     7
 43
1.0
 76
     1
 77
     6
 78
     2
 67
     7
 79
     5
170
     0
171
     0
290
     0
174
     0
 93
        1
 44
0.0
173
     0
291
     1
 45
0.0
1001
ACAD
1000
AcDbSavedByObjectVersion
1070
     0
  0
VISUALSTYLE
  5
2CF
102
{ACAD_XDICTIONARY
360
35F
102
}
102
{ACAD_REACTORS
330
2B8
102
}
330
2B8
100
AcDbVisualStyle
  2
OverhangOff
 70
    21
 71
     2
 72
     2
 73
     0
 90
        0
 40
-0.6
 41
-30.0
 62
     5
 63
     7
 74
     1
 91
        4
 64
     7
 65
   257
 75
     1
175
     1
 42
1.0
 92
        9
 66
     7
 43
1.0
 76
     1
 77
     6
 78
     2
 67
     7
 79
     5
170
     0
171
     0
290
     0
174
     0
 93
        1
 44
0.0
173
     0
291
     1
 45
0.0
1001
ACAD
1000
AcDbSavedByObjectVersion
1070
     0
  0
VISUALSTYLE
  5
2C2
102
{ACAD_XDICTIONARY
360
345
102
}
102
{ACAD_REACTORS
330
2B8
102
}
330
2B8
100
AcDbVisualStyle
  2
Realistic
 70
     8
 71
     2
 72
     3
 73
     0
 90
        2
 40
-0.6
 41
30.0
 62
     5
 63
     7
 74
     0
 91
        0
 64
     7
 65
   257
 75
     1
175
     1
 42
1.0
 92
        8
 66
   257
 43
1.0
 76
     1
 77
     6
 78
     2
 67
     7
 79
     3
170
     0
171
     0
290
     0
174
     0
 93
       13
 44
0.0
173
     0
291
     0
 45
0.0
1001
ACAD
1000
AcDbSavedByObjectVersion
1070
     0
  0
VISUALSTYLE
  5
2CD
102
{ACAD_XDICTIONARY
360
35B
102
}
102
{ACAD_REACTORS
330
2B8
102
}
330
2B8
100
AcDbVisualStyle
  2
Shaded
 70
    27
 71
     2
 72
     2
 73
     1
 90
        2
 40
-0.6
 41
30.0
 62
     5
 63
     7
 74
     0
 91
        4
 64
     7
 65
   257
 75
     1
175
     1
 42
1.0
 92
        8
 66
   257
 43
1.0
 76
     1
 77
     6
 78
     2
 67
     8
 79
     3
170
     0
171
     0
290
     0
174
     0
 93
        5
 44
0.0
173
     0
291
     0
 45
0.0
1001
ACAD
1000
AcDbSavedByObjectVersion
1070
     0
  0
VISUALSTYLE
  5
2CC
102
{ACAD_XDICTIONARY
360
359
102
}
102
{ACAD_REACTORS
330
2B8
102
}
330
2B8
100
AcDbVisualStyle
  2
Shaded with edges
 70
    26
 71
     2
 72
     2
 73
     1
 90
        2
 40
-0.6
 41
30.0
 62
     5
 63
     7
 74
     1
 91
        2
 64
     7
 65
   257
 75
     2
175
     1
 42
1.0
 92
        8
 66
   257
 43
1.0
 76
     1
 77
     6
 78
     2
 67
     7
 79
     3
170
     0
171
     0
290
     0
174
     0
 93
        5
 44
0.0
173
     0
291
     0
 45
0.0
1001
ACAD
1000
AcDbSavedByObjectVersion
1070
     0
  0
VISUALSTYLE
  5
2C9
102
{ACAD_XDICTIONARY
360
353
102
}
102
{ACAD_REACTORS
330
2B8
102
}
330
2B8
100
AcDbVisualStyle
  2
Shades of Gray
 70
    23
 71
     2
 72
     2
 73
     3
 90
        0
 40
-0.6
 41
-30.0
 62
     5
 63
     7
 74
     2
 91
        2
 64
     7
 65
     7
 75
     1
175
     1
 42
40.0
 92
        8
 66
     7
 43
1.0
 76
     1
 77
     6
 78
     2
 67
     7
 79
     3
170
     0
171
     0
290
     0
174
     0
 93
        1
 44
0.0
173
     0
291
     0
 45
0.0
1001
ACAD
1000
AcDbSavedByObjectVersion
1070
     0
  0
VISUALSTYLE
  5
2CA
102
{ACAD_XDICTIONARY
360
355
102
}
102
{ACAD_REACTORS
330
2B8
102
}
330
2B8
100
AcDbVisualStyle
  2
Sketchy
 70
    24
 71
     1
 72
     2
 73
     2
 90
        0
 40
-0.6
 41
-30.0
 62
     5
 63
     7
 74
     2
 91
        2
 64
     7
 65
     7
 75
     1
175
     1
 42
40.0
 92
       11
 66
     7
 43
1.0
 76
     1
 77
     6
 78
     2
 67
     7
 79
     6
170
     0
171
     0
290
     0
174
     0
 93
        1
 44
0.0
173
     0
291
     0
 45
0.0
1001
ACAD
1000
AcDbSavedByObjectVersion
1070
     0
  0
VISUALSTYLE
  5
2C5
102
{ACAD_XDICTIONARY
360
34B
102
}
102
{ACAD_REACTORS
330
2B8
102
}
330
2B8
100
AcDbVisualStyle
  2
Thicken
 70
    13
 71
     2
 72
     2
 73
     0
 90
        0
 40
-0.6
 41
-30.0
 62
     5
 63
     7
 74
     1
 91
        4
 64
     7
 65
   257
 75
     1
175
     1
 42
1.0
 92
       12
 66
     7
 43
1.0
 76
     1
 77
     6
 78
     2
 67
     7
 79
     5
170
     0
171
     0
290
     0
174
     0
 93
        1
 44
0.0
173
     0
291
     1
 45
0.0
1001
ACAD
1000
AcDbSavedByObjectVersion
1070
     0
  0
VISUALSTYLE
  5
2BF
102
{ACAD_XDICTIONARY
360
33F
102
}
102
{ACAD_REACTORS
330
2B8
102
}
330
2B8
100
AcDbVisualStyle
  2
Wireframe
 70
     5
 71
     0
 72
     2
 73
     0
 90
        0
 40
-0.6
 41
-30.0
 62
     5
 63
     7
 74
     1
 91
        4
 64
     7
 65
   257
 75
     1
175
     1
 42
1.0
 92
        0
 66
   257
 43
1.0
 76
     1
 77
     6
 78
     2
 67
     7
 79
     3
170
     0
171
     0
290
     0
174
     0
 93
        1
 44
0.0
173
     0
291
     0
 45
0.0
1001
ACAD
1000
AcDbSavedByObjectVersion
1070
     0
  0
VISUALSTYLE
  5
2CB
102
{ACAD_XDICTIONARY
360
357
102
}
102
{ACAD_REACTORS
330
2B8
102
}
330
2B8
100
AcDbVisualStyle
  2
X-Ray
 70
    25
 71
     2
 72
     2
 73
     1
 90
        1
 40
0.5
 41
-30.0
 62
     5
 63
     7
 74
     1
 91
        0
 64
     7
 65
   257
 75
     1
175
     1
 42
1.0
 92
        8
 66
     7
 43
1.0
 76
     1
 77
     6
 78
     2
 67
     7
 79
     3
170
     0
171
     0
290
     0
174
     0
 93
       13
 44
0.0
173
     0
291
     0
 45
0.0
1001
ACAD
1000
AcDbSavedByObjectVersion
1070
     0
  0
DICTIONARYVAR
  5
326
102
{ACAD_REACTORS
330
321
102
}
330
321
100
DictionaryVariables
280
     0
  1
1:1
  0
DICTIONARYVAR
  5
323
102
{ACAD_REACTORS
330
321
102
}
330
321
100
DictionaryVariables
280
     0
  1
STANDARD
  0
DICTIONARYVAR
  5
322
102
{ACAD_REACTORS
330
321
102
}
330
321
100
DictionaryVariables
280
     0
  1
STANDARD
  0
DICTIONARYVAR
  5
324
102
{ACAD_REACTORS
330
321
102
}
330
321
100
DictionaryVariables
280
     0
  1
Imperial24
  0
DICTIONARYVAR
  5
325
102
{ACAD_REACTORS
330
321
102
}
330
321
100
DictionaryVariables
280
     0
  1
Imperial24
  0
DICTIONARYVAR
  5
329
102
{ACAD_REACTORS
330
321
102
}
330
321
100
DictionaryVariables
280
     0
  1
1
  0
DICTIONARYVAR
  5
328
102
{ACAD_REACTORS
330
321
102
}
330
321
100
DictionaryVariables
280
     0
  1
0
  0
DICTIONARYVAR
  5
327
102
{ACAD_REACTORS
330
321
102
}
330
321
100
DictionaryVariables
280
     0
  1
127
  0
DICTIONARYVAR
  5
32A
102
{ACAD_REACTORS
330
321
102
}
330
321
100
DictionaryVariables
280
     0
  1
2
  0
DICTIONARY
  5
367
330
2F9
100
AcDbDictionary
280
     1
281
     1
  3
ACAD_XREC_ROUNDTRIP
360
368
  0
DICTIONARY
  5
36B
330
301
100
AcDbDictionary
280
     1
281
     1
  3
ACAD_XREC_ROUNDTRIP
360
36C
  0
DICTIONARY
  5
369
330
2FD
100
AcDbDictionary
280
     1
281
     1
  3
ACAD_XREC_ROUNDTRIP
360
36A
  0
DICTIONARY
  5
2A9
330
2A8
100
AcDbDictionary
280
     1
281
     1
  3
ACAD_XREC_ROUNDTRIP
360
331
  3
BUMPTILE
360
2AB
  3
DIFFUSETILE
360
2AA
  3
OPACITYTILE
360
2AE
  3
REFLECTIONTILE
360
2AD
  3
REFRACTIONTILE
360
2AF
  3
SPECULARTILE
360
2AC
  0
DICTIONARY
  5
2A1
330
2A0
100
AcDbDictionary
280
     1
281
     1
  3
ACAD_XREC_ROUNDTRIP
360
330
  3
BUMPTILE
360
2A3
  3
DIFFUSETILE
360
2A2
  3
OPACITYTILE
360
2A6
  3
REFLECTIONTILE
360
2A5
  3
REFRACTIONTILE
360
2A7
  3
SPECULARTILE
360
2A4
  0
DICTIONARY
  5
2B1
330
2B0
100
AcDbDictionary
280
     1
281
     1
  3
ACAD_XREC_ROUNDTRIP
360
332
  3
BUMPTILE
360
2B3
  3
DIFFUSETILE
360
2B2
  3
OPACITYTILE
360
2B6
  3
REFLECTIONTILE
360
2B5
  3
REFRACTIONTILE
360
2B7
  3
SPECULARTILE
360
2B4
  0
DICTIONARY
  5
365
330
2F7
100
AcDbDictionary
280
     1
281
     1
  3
ACAD_XREC_ROUNDTRIP
360
366
  0
DICTIONARY
  5
32C
330
2F3
100
AcDbDictionary
280
     1
281
     1
  3
ACAD_ROUNDTRIP_2008_TABLESTYLE_CELLSTYLEMAP
360
32D
  3
ACAD_XREC_ROUNDTRIP
360
363
  0
DICTIONARY
  5
33D
330
2BE
100
AcDbDictionary
280
     1
281
     1
  3
ACAD_XREC_ROUNDTRIP
360
33E
  0
DICTIONARY
  5
33B
330
2BD
100
AcDbDictionary
280
     1
281
     1
  3
ACAD_XREC_ROUNDTRIP
360
33C
  0
DICTIONARY
  5
349
330
2C4
100
AcDbDictionary
280
     1
281
     1
  3
ACAD_XREC_ROUNDTRIP
360
34A
  0
DICTIONARY
  5
351
330
2C8
100
AcDbDictionary
280
     1
281
     1
  3
ACAD_XREC_ROUNDTRIP
360
352
  0
DICTIONARY
  5
343
330
2C1
100
AcDbDictionary
280
     1
281
     1
  3
ACAD_XREC_ROUNDTRIP
360
344
  0
DICTIONARY
  5
347
330
2C3
100
AcDbDictionary
280
     1
281
     1
  3
ACAD_XREC_ROUNDTRIP
360
348
  0
DICTIONARY
  5
361
330
2D0
100
AcDbDictionary
280
     1
281
     1
  3
ACAD_XREC_ROUNDTRIP
360
362
  0
DICTIONARY
  5
34F
330
2C7
100
AcDbDictionary
280
     1
281
     1
  3
ACAD_XREC_ROUNDTRIP
360
350
  0
DICTIONARY
  5
333
330
2B9
100
AcDbDictionary
280
     1
281
     1
  3
ACAD_XREC_ROUNDTRIP
360
334
  0
DICTIONARY
  5
335
330
2BA
100
AcDbDictionary
280
     1
281
     1
  3
ACAD_XREC_ROUNDTRIP
360
336
  0
DICTIONARY
  5
337
330
2BB
100
AcDbDictionary
280
     1
281
     1
  3
ACAD_XREC_ROUNDTRIP
360
338
  0
DICTIONARY
  5
339
330
2BC
100
AcDbDictionary
280
     1
281
     1
  3
ACAD_XREC_ROUNDTRIP
360
33A
  0
DICTIONARY
  5
341
330
2C0
100
AcDbDictionary
280
     1
281
     1
  3
ACAD_XREC_ROUNDTRIP
360
342
  0
DICTIONARY
  5
35D
330
2CE
100
AcDbDictionary
280
     1
281
     1
  3
ACAD_XREC_ROUNDTRIP
360
35E
  0
DICTIONARY
  5
34D
330
2C6
100
AcDbDictionary
280
     1
281
     1
  3
ACAD_XREC_ROUNDTRIP
360
34E
  0
DICTIONARY
  5
35F
330
2CF
100
AcDbDictionary
280
     1
281
     1
  3
ACAD_XREC_ROUNDTRIP
360
360
  0
DICTIONARY
  5
345
330
2C2
100
AcDbDictionary
280
     1
281
     1
  3
ACAD_XREC_ROUNDTRIP
360
346
  0
DICTIONARY
  5
35B
330
2CD
100
AcDbDictionary
280
     1
281
     1
  3
ACAD_XREC_ROUNDTRIP
360
35C
  0
DICTIONARY
  5
359
330
2CC
100
AcDbDictionary
280
     1
281
     1
  3
ACAD_XREC_ROUNDTRIP
360
35A
  0
DICTIONARY
  5
353
330
2C9
100
AcDbDictionary
280
     1
281
     1
  3
ACAD_XREC_ROUNDTRIP
360
354
  0
DICTIONARY
  5
355
330
2CA
100
AcDbDictionary
280
     1
281
     1
  3
ACAD_XREC_ROUNDTRIP
360
356
  0
DICTIONARY
  5
34B
330
2C5
100
AcDbDictionary
280
     1
281
     1
  3
ACAD_XREC_ROUNDTRIP
360
34C
  0
DICTIONARY
  5
33F
330
2BF
100
AcDbDictionary
280
     1
281
     1
  3
ACAD_XREC_ROUNDTRIP
360
340
  0
DICTIONARY
  5
357
330
2CB
100
AcDbDictionary
280
     1
281
     1
  3
ACAD_XREC_ROUNDTRIP
360
358
  0
XRECORD
  5
368
102
{ACAD_REACTORS
330
367
102
}
330
367
100
AcDbXrecord
280
     1
102
DISPLAYNAME
  1
Imperial24
102
FLAGS
 90
        0
  0
XRECORD
  5
36C
102
{ACAD_REACTORS
330
36B
102
}
330
36B
100
AcDbXrecord
280
     1
102
SHADEPLOT
 70
     0
102
SHADEPLOTRESLEVEL
 70
     2
102
SHADEPLOTCUSTOMDPI
 70
   300
  0
XRECORD
  5
36A
102
{ACAD_REACTORS
330
369
102
}
330
369
100
AcDbXrecord
280
     1
102
SHADEPLOT
 70
     0
102
SHADEPLOTRESLEVEL
 70
     2
102
SHADEPLOTCUSTOMDPI
 70
   300
  0
XRECORD
  5
331
102
{ACAD_REACTORS
330
2A9
102
}
330
2A9
100
AcDbXrecord
280
     1
102
MATERIAL
148
0.0
149
0.0
149
0.0
 93
        0
 94
      127
282
     0
 72
     0
 77
     0
171
     0
175
     0
179
     0
273
     0
  0
XRECORD
  5
2AB
102
{ACAD_REACTORS
330
2A9
102
}
330
2A9
100
AcDbXrecord
280
     1
270
     1
271
     1
  0
XRECORD
  5
2AA
102
{ACAD_REACTORS
330
2A9
102
}
330
2A9
100
AcDbXrecord
280
     1
270
     1
271
     1
  0
XRECORD
  5
2AE
102
{ACAD_REACTORS
330
2A9
102
}
330
2A9
100
AcDbXrecord
280
     1
270
     1
271
     1
  0
XRECORD
  5
2AD
102
{ACAD_REACTORS
330
2A9
102
}
330
2A9
100
AcDbXrecord
280
     1
270
     1
271
     1
  0
XRECORD
  5
2AF
102
{ACAD_REACTORS
330
2A9
102
}
330
2A9
100
AcDbXrecord
280
     1
270
     1
271
     1
  0
XRECORD
  5
2AC
102
{ACAD_REACTORS
330
2A9
102
}
330
2A9
100
AcDbXrecord
280
     1
270
     1
271
     1
  0
XRECORD
  5
330
102
{ACAD_REACTORS
330
2A1
102
}
330
2A1
100
AcDbXrecord
280
     1
102
MATERIAL
148
0.0
149
0.0
149
0.0
 93
        0
 94
      127
282
     0
 72
     0
 77
     0
171
     0
175
     0
179
     0
273
     0
  0
XRECORD
  5
2A3
102
{ACAD_REACTORS
330
2A1
102
}
330
2A1
100
AcDbXrecord
280
     1
270
     1
271
     1
  0
XRECORD
  5
2A2
102
{ACAD_REACTORS
330
2A1
102
}
330
2A1
100
AcDbXrecord
280
     1
270
     1
271
     1
  0
XRECORD
  5
2A6
102
{ACAD_REACTORS
330
2A1
102
}
330
2A1
100
AcDbXrecord
280
     1
270
     1
271
     1
  0
XRECORD
  5
2A5
102
{ACAD_REACTORS
330
2A1
102
}
330
2A1
100
AcDbXrecord
280
     1
270
     1
271
     1
  0
XRECORD
  5
2A7
102
{ACAD_REACTORS
330
2A1
102
}
330
2A1
100
AcDbXrecord
280
     1
270
     1
271
     1
  0
XRECORD
  5
2A4
102
{ACAD_REACTORS
330
2A1
102
}
330
2A1
100
AcDbXrecord
280
     1
270
     1
271
     1
  0
XRECORD
  5
332
102
{ACAD_REACTORS
330
2B1
102
}
330
2B1
100
AcDbXrecord
280
     1
102
MATERIAL
148
0.0
149
0.0
149
0.0
 93
        0
 94
      127
282
     0
 72
     0
 77
     0
171
     0
175
     0
179
     0
273
     0
  0
XRECORD
  5
2B3
102
{ACAD_REACTORS
330
2B1
102
}
330
2B1
100
AcDbXrecord
280
     1
270
     1
271
     1
  0
XRECORD
  5
2B2
102
{ACAD_REACTORS
330
2B1
102
}
330
2B1
100
AcDbXrecord
280
     1
270
     1
271
     1
  0
XRECORD
  5
2B6
102
{ACAD_REACTORS
330
2B1
102
}
330
2B1
100
AcDbXrecord
280
     1
270
     1
271
     1
  0
XRECORD
  5
2B5
102
{ACAD_REACTORS
330
2B1
102
}
330
2B1
100
AcDbXrecord
280
     1
270
     1
271
     1
  0
XRECORD
  5
2B7
102
{ACAD_REACTORS
330
2B1
102
}
330
2B1
100
AcDbXrecord
280
     1
270
     1
271
     1
  0
XRECORD
  5
2B4
102
{ACAD_REACTORS
330
2B1
102
}
330
2B1
100
AcDbXrecord
280
     1
270
     1
271
     1
  0
XRECORD
  5
366
102
{ACAD_REACTORS
330
365
102
}
330
365
100
AcDbXrecord
280
     1
102
DISPLAYNAME
  1
Imperial24
102
FLAGS
 90
        0
  0
CELLSTYLEMAP
  5
32D
102
{ACAD_REACTORS
330
32C
102
}
330
32C
100
AcDbCellStyleMap
 90
        3
300
CELLSTYLE
  1
TABLEFORMAT_BEGIN
 90
        5
170
     1
 91
        0
 92
    32768
 62
   257
 93
        1
300
CONTENTFORMAT
  1
CONTENTFORMAT_BEGIN
 90
        0
 91
        0
 92
      512
 93
        0
300

 40
0.0
140
1.0
 94
        5
 62
     0
340
2E4
144
0.25
309
CONTENTFORMAT_END
171
     0
 94
        0
309
TABLEFORMAT_END
  1
CELLSTYLE_BEGIN
 90
        1
 91
        1
300
_TITLE
309
CELLSTYLE_END
300
CELLSTYLE
  1
TABLEFORMAT_BEGIN
 90
        5
170
     1
 91
        0
 92
        0
 62
   257
 93
        1
300
CONTENTFORMAT
  1
CONTENTFORMAT_BEGIN
 90
        0
 91
        0
 92
      512
 93
        0
300

 40
0.0
140
1.0
 94
        5
 62
     0
340
2E4
144
0.18
309
CONTENTFORMAT_END
171
     0
 94
        0
309
TABLEFORMAT_END
  1
CELLSTYLE_BEGIN
 90
        2
 91
        1
300
_HEADER
309
CELLSTYLE_END
300
CELLSTYLE
  1
TABLEFORMAT_BEGIN
 90
        5
170
     1
 91
        0
 92
        0
 62
   257
 93
        1
300
CONTENTFORMAT
  1
CONTENTFORMAT_BEGIN
 90
        0
 91
        0
 92
      512
 93
        0
300

 40
0.0
140
1.0
 94
        2
 62
     0
340
2E4
144
0.18
309
CONTENTFORMAT_END
171
     0
 94
        0
309
TABLEFORMAT_END
  1
CELLSTYLE_BEGIN
 90
        3
 91
        2
300
_DATA
309
CELLSTYLE_END
  0
XRECORD
  5
363
102
{ACAD_REACTORS
330
32C
102
}
330
32C
100
AcDbXrecord
280
     1
102
ACAD_ROUNDTRIP_PRE2007_TABLESTYLE
 90
      512
 91
        0
  1

 92
      512
 93
        0
  2

 94
      512
 95
        0
  3

  0
XRECORD
  5
33E
102
{ACAD_REACTORS
330
33D
102
}
330
33D
100
AcDbXrecord
280
     1
102
RTVSPost2010Prop28
280
     1
102
RTVSPost2010PropOp28
 70
     1
102
RTVSPost2010Prop29
280
     1
102
RTVSPost2010PropOp29
 70
     1
102
RTVSPost2010Prop30
280
     0
102
RTVSPost2010PropOp30
 70
     1
102
RTVSPost2010Prop31
280
     0
102
RTVSPost2010PropOp31
 70
     1
102
RTVSPost2010Prop32
280
     0
102
RTVSPost2010PropOp32
 70
     1
102
RTVSPost2010Prop33
280
     0
102
RTVSPost2010PropOp33
 70
     1
102
RTVSPost2010Prop34
280
     0
102
RTVSPost2010PropOp34
 70
     1
102
RTVSPost2010Prop35
280
     0
102
RTVSPost2010PropOp35
 70
     1
102
RTVSPost2010Prop36
280
     0
102
RTVSPost2010PropOp36
 70
     1
102
RTVSPost2010Prop37
 90
       50
102
RTVSPost2010PropOp37
 70
     1
102
RTVSPost2010Prop38
140
0.0
102
RTVSPost2010PropOp38
 70
     1
102
RTVSPost2010Prop39
140
1.0
102
RTVSPost2010PropOp39
 70
     1
102
RTVSPost2010Prop40
 90
        0
102
RTVSPost2010PropOp40
 70
     1
102
RTVSPost2010Prop41ColorIndex
 90
       18
102
RTVSPost2010Prop41ColorRGB
 90
        0
102
RTVSPost2010PropOp41
 70
     1
102
RTVSPost2010Prop42
 90
       50
102
RTVSPost2010PropOp42
 70
     1
102
RTVSPost2010Prop43
 90
        3
102
RTVSPost2010PropOp43
 70
     1
102
RTVSPost2010Prop44ColorIndex
 90
        5
102
RTVSPost2010Prop44ColorRGB
 90
      255
102
RTVSPost2010PropOp44
 70
     1
102
RTVSPost2010Prop45
280
     0
102
RTVSPost2010PropOp45
 70
     1
102
RTVSPost2010Prop46
 90
       50
102
RTVSPost2010PropOp46
 70
     1
102
RTVSPost2010Prop47
 90
       50
102
RTVSPost2010PropOp47
 70
     1
102
RTVSPost2010Prop48
 90
       50
102
RTVSPost2010PropOp48
 70
     1
102
RTVSPost2010Prop49
280
     0
102
RTVSPost2010PropOp49
 70
     1
102
RTVSPost2010Prop50
 90
       50
102
RTVSPost2010PropOp50
 70
     1
102
RTVSPost2010Prop51ColorIndex
 90
      256
102
RTVSPost2010Prop51ColorRGB
 90
-16777216
102
RTVSPost2010PropOp51
 70
     0
102
RTVSPost2010Prop52
140
1.0
102
RTVSPost2010PropOp52
 70
     0
102
RTVSPost2010Prop53
 90
        2
102
RTVSPost2010PropOp53
 70
     1
102
RTVSPost2010Prop54
  1
strokes_ogs.tif
102
RTVSPost2010PropOp54
 70
     1
102
RTVSPost2010Prop55
280
     0
102
RTVSPost2010PropOp55
 70
     1
102
RTVSPost2010Prop56
140
1.0
102
RTVSPost2010PropOp56
 70
     1
102
RTVSPost2010Prop57
140
1.0
102
RTVSPost2010PropOp57
 70
     1
102
RTVSPropertyOp0
 70
     1
102
RTVSPropertyOp1
 70
     1
102
RTVSPropertyOp2
 70
     1
102
RTVSPropertyOp3
 70
     1
102
RTVSPropertyOp4
 70
     1
102
RTVSPropertyOp5
 70
     1
102
RTVSPropertyOp6
 70
     1
102
RTVSPropertyOp7
 70
     1
102
RTVSPropertyOp8
 70
     1
102
RTVSPropertyOp9
 70
     1
102
RTVSPropertyOp10
 70
     1
102
RTVSPropertyOp11
 70
     1
102
RTVSPropertyOp12
 70
     1
102
RTVSPropertyOp13
 70
     1
102
RTVSPropertyOp14
 70
     1
102
RTVSPropertyOp15
 70
     1
102
RTVSPropertyOp16
 70
     1
102
RTVSPropertyOp17
 70
     1
102
RTVSPropertyOp18
 70
     1
102
RTVSPropertyOp19
 70
     1
102
RTVSPropertyOp20
 70
     1
102
RTVSPropertyOp21
 70
     1
102
RTVSPropertyOp22
 70
     1
102
RTVSPropertyOp23
 70
     1
102
RTVSPropertyOp24
 70
     1
102
RTVSPropertyOp25
 70
     1
102
RTVSPropertyOp26
 70
     1
102
RTVSPropertyOp27
 70
     1
102
RTVSPropertyOp28
 70
     1
102
RTVSPropertyOp29
 70
     1
102
RTVSPropertyOp30
 70
     1
102
RTVSPropertyOp31
 70
     1
102
RTVSPropertyOp32
 70
     1
102
RTVSPropertyOp33
 70
     1
102
RTVSPropertyOp34
 70
     1
102
RTVSPropertyOp35
 70
     1
102
RTVSPropertyOp36
 70
     1
102
RTVSPropertyOp37
 70
     1
102
RTVSPropertyOp38
 70
     1
102
RTVSPropertyOp39
 70
     1
102
RTVSPropertyOp40
 70
     1
102
RTVSPropertyOp41
 70
     1
102
RTVSPropertyOp42
 70
     1
102
RTVSPropertyOp43
 70
     1
102
RTVSPropertyOp44
 70
     1
102
RTVSPropertyOp45
 70
     1
102
RTVSPropertyOp46
 70
     1
102
RTVSPropertyOp47
 70
     1
102
RTVSPropertyOp48
 70
     1
102
RTVSPropertyOp49
 70
     1
102
RTVSPropertyOp50
 70
     1
102
RTVSPropertyOp51
 70
     0
102
RTVSPropertyOp52
 70
     0
102
RTVSPropertyOp53
 70
     1
102
RTVSPropertyOp54
 70
     1
102
RTVSPropertyOp55
 70
     1
102
RTVSPropertyOp56
 70
     1
102
RTVSPropertyOp57
 70
     1
102
RTVSPropertyOp58
 70
     1
102
RTVSPropertyOp59
 70
     1
102
RTVSPropertyOp60
 70
     1
102
RTVSPropertyOp61
 70
     1
102
RTVSPropertyOp62
 70
     1
  0
XRECORD
  5
33C
102
{ACAD_REACTORS
330
33B
102
}
330
33B
100
AcDbXrecord
280
     1
102
RTVSPost2010Prop28
280
     0
102
RTVSPost2010PropOp28
 70
     1
102
RTVSPost2010Prop29
280
     1
102
RTVSPost2010PropOp29
 70
     1
102
RTVSPost2010Prop30
280
     1
102
RTVSPost2010PropOp30
 70
     1
102
RTVSPost2010Prop31
280
     0
102
RTVSPost2010PropOp31
 70
     1
102
RTVSPost2010Prop32
280
     0
102
RTVSPost2010PropOp32
 70
     1
102
RTVSPost2010Prop33
280
     0
102
RTVSPost2010PropOp33
 70
     1
102
RTVSPost2010Prop34
280
     0
102
RTVSPost2010PropOp34
 70
     1
102
RTVSPost2010Prop35
280
     0
102
RTVSPost2010PropOp35
 70
     1
102
RTVSPost2010Prop36
280
     0
102
RTVSPost2010PropOp36
 70
     1
102
RTVSPost2010Prop37
 90
       50
102
RTVSPost2010PropOp37
 70
     1
102
RTVSPost2010Prop38
140
0.0
102
RTVSPost2010PropOp38
 70
     1
102
RTVSPost2010Prop39
140
1.0
102
RTVSPost2010PropOp39
 70
     1
102
RTVSPost2010Prop40
 90
        0
102
RTVSPost2010PropOp40
 70
     1
102
RTVSPost2010Prop41ColorIndex
 90
       18
102
RTVSPost2010Prop41ColorRGB
 90
        0
102
RTVSPost2010PropOp41
 70
     1
102
RTVSPost2010Prop42
 90
       50
102
RTVSPost2010PropOp42
 70
     1
102
RTVSPost2010Prop43
 90
        3
102
RTVSPost2010PropOp43
 70
     1
102
RTVSPost2010Prop44ColorIndex
 90
        5
102
RTVSPost2010Prop44ColorRGB
 90
      255
102
RTVSPost2010PropOp44
 70
     1
102
RTVSPost2010Prop45
280
     0
102
RTVSPost2010PropOp45
 70
     1
102
RTVSPost2010Prop46
 90
       50
102
RTVSPost2010PropOp46
 70
     1
102
RTVSPost2010Prop47
 90
       50
102
RTVSPost2010PropOp47
 70
     1
102
RTVSPost2010Prop48
 90
       50
102
RTVSPost2010PropOp48
 70
     1
102
RTVSPost2010Prop49
280
     0
102
RTVSPost2010PropOp49
 70
     1
102
RTVSPost2010Prop50
 90
       50
102
RTVSPost2010PropOp50
 70
     1
102
RTVSPost2010Prop51ColorIndex
 90
      256
102
RTVSPost2010Prop51ColorRGB
 90
-16777216
102
RTVSPost2010PropOp51
 70
     0
102
RTVSPost2010Prop52
140
1.0
102
RTVSPost2010PropOp52
 70
     0
102
RTVSPost2010Prop53
 90
        2
102
RTVSPost2010PropOp53
 70
     1
102
RTVSPost2010Prop54
  1
strokes_ogs.tif
102
RTVSPost2010PropOp54
 70
     1
102
RTVSPost2010Prop55
280
     0
102
RTVSPost2010PropOp55
 70
     1
102
RTVSPost2010Prop56
140
1.0
102
RTVSPost2010PropOp56
 70
     1
102
RTVSPost2010Prop57
140
1.0
102
RTVSPost2010PropOp57
 70
     1
102
RTVSPropertyOp0
 70
     1
102
RTVSPropertyOp1
 70
     1
102
RTVSPropertyOp2
 70
     1
102
RTVSPropertyOp3
 70
     1
102
RTVSPropertyOp4
 70
     1
102
RTVSPropertyOp5
 70
     1
102
RTVSPropertyOp6
 70
     1
102
RTVSPropertyOp7
 70
     1
102
RTVSPropertyOp8
 70
     1
102
RTVSPropertyOp9
 70
     1
102
RTVSPropertyOp10
 70
     1
102
RTVSPropertyOp11
 70
     1
102
RTVSPropertyOp12
 70
     1
102
RTVSPropertyOp13
 70
     1
102
RTVSPropertyOp14
 70
     1
102
RTVSPropertyOp15
 70
     1
102
RTVSPropertyOp16
 70
     1
102
RTVSPropertyOp17
 70
     1
102
RTVSPropertyOp18
 70
     1
102
RTVSPropertyOp19
 70
     1
102
RTVSPropertyOp20
 70
     1
102
RTVSPropertyOp21
 70
     1
102
RTVSPropertyOp22
 70
     1
102
RTVSPropertyOp23
 70
     1
102
RTVSPropertyOp24
 70
     1
102
RTVSPropertyOp25
 70
     1
102
RTVSPropertyOp26
 70
     1
102
RTVSPropertyOp27
 70
     1
102
RTVSPropertyOp28
 70
     1
102
RTVSPropertyOp29
 70
     1
102
RTVSPropertyOp30
 70
     1
102
RTVSPropertyOp31
 70
     1
102
RTVSPropertyOp32
 70
     1
102
RTVSPropertyOp33
 70
     1
102
RTVSPropertyOp34
 70
     1
102
RTVSPropertyOp35
 70
     1
102
RTVSPropertyOp36
 70
     1
102
RTVSPropertyOp37
 70
     1
102
RTVSPropertyOp38
 70
     1
102
RTVSPropertyOp39
 70
     1
102
RTVSPropertyOp40
 70
     1
102
RTVSPropertyOp41
 70
     1
102
RTVSPropertyOp42
 70
     1
102
RTVSPropertyOp43
 70
     1
102
RTVSPropertyOp44
 70
     1
102
RTVSPropertyOp45
 70
     1
102
RTVSPropertyOp46
 70
     1
102
RTVSPropertyOp47
 70
     1
102
RTVSPropertyOp48
 70
     1
102
RTVSPropertyOp49
 70
     1
102
RTVSPropertyOp50
 70
     1
102
RTVSPropertyOp51
 70
     0
102
RTVSPropertyOp52
 70
     0
102
RTVSPropertyOp53
 70
     1
102
RTVSPropertyOp54
 70
     1
102
RTVSPropertyOp55
 70
     1
102
RTVSPropertyOp56
 70
     1
102
RTVSPropertyOp57
 70
     1
102
RTVSPropertyOp58
 70
     1
102
RTVSPropertyOp59
 70
     1
102
RTVSPropertyOp60
 70
     1
102
RTVSPropertyOp61
 70
     1
102
RTVSPropertyOp62
 70
     1
  0
XRECORD
  5
34A
102
{ACAD_REACTORS
330
349
102
}
330
349
100
AcDbXrecord
280
     1
102
RTVSPost2010Prop28
280
     0
102
RTVSPost2010PropOp28
 70
     1
102
RTVSPost2010Prop29
280
     1
102
RTVSPost2010PropOp29
 70
     1
102
RTVSPost2010Prop30
280
     1
102
RTVSPost2010PropOp30
 70
     1
102
RTVSPost2010Prop31
280
     0
102
RTVSPost2010PropOp31
 70
     1
102
RTVSPost2010Prop32
280
     0
102
RTVSPost2010PropOp32
 70
     1
102
RTVSPost2010Prop33
280
     0
102
RTVSPost2010PropOp33
 70
     1
102
RTVSPost2010Prop34
280
     0
102
RTVSPost2010PropOp34
 70
     1
102
RTVSPost2010Prop35
280
     0
102
RTVSPost2010PropOp35
 70
     1
102
RTVSPost2010Prop36
280
     0
102
RTVSPost2010PropOp36
 70
     1
102
RTVSPost2010Prop37
 90
       50
102
RTVSPost2010PropOp37
 70
     1
102
RTVSPost2010Prop38
140
0.0
102
RTVSPost2010PropOp38
 70
     1
102
RTVSPost2010Prop39
140
1.0
102
RTVSPost2010PropOp39
 70
     1
102
RTVSPost2010Prop40
 90
        0
102
RTVSPost2010PropOp40
 70
     1
102
RTVSPost2010Prop41ColorIndex
 90
       18
102
RTVSPost2010Prop41ColorRGB
 90
        0
102
RTVSPost2010PropOp41
 70
     1
102
RTVSPost2010Prop42
 90
       50
102
RTVSPost2010PropOp42
 70
     1
102
RTVSPost2010Prop43
 90
        3
102
RTVSPost2010PropOp43
 70
     1
102
RTVSPost2010Prop44ColorIndex
 90
        5
102
RTVSPost2010Prop44ColorRGB
 90
      255
102
RTVSPost2010PropOp44
 70
     1
102
RTVSPost2010Prop45
280
     0
102
RTVSPost2010PropOp45
 70
     1
102
RTVSPost2010Prop46
 90
       50
102
RTVSPost2010PropOp46
 70
     1
102
RTVSPost2010Prop47
 90
       50
102
RTVSPost2010PropOp47
 70
     1
102
RTVSPost2010Prop48
 90
       50
102
RTVSPost2010PropOp48
 70
     1
102
RTVSPost2010Prop49
280
     0
102
RTVSPost2010PropOp49
 70
     1
102
RTVSPost2010Prop50
 90
       50
102
RTVSPost2010PropOp50
 70
     1
102
RTVSPost2010Prop51ColorIndex
 90
      256
102
RTVSPost2010Prop51ColorRGB
 90
-16777216
102
RTVSPost2010PropOp51
 70
     0
102
RTVSPost2010Prop52
140
1.0
102
RTVSPost2010PropOp52
 70
     0
102
RTVSPost2010Prop53
 90
        2
102
RTVSPost2010PropOp53
 70
     1
102
RTVSPost2010Prop54
  1
strokes_ogs.tif
102
RTVSPost2010PropOp54
 70
     1
102
RTVSPost2010Prop55
280
     0
102
RTVSPost2010PropOp55
 70
     1
102
RTVSPost2010Prop56
140
1.0
102
RTVSPost2010PropOp56
 70
     1
102
RTVSPost2010Prop57
140
1.0
102
RTVSPost2010PropOp57
 70
     1
102
RTVSPropertyOp0
 70
     1
102
RTVSPropertyOp1
 70
     1
102
RTVSPropertyOp2
 70
     1
102
RTVSPropertyOp3
 70
     1
102
RTVSPropertyOp4
 70
     1
102
RTVSPropertyOp5
 70
     1
102
RTVSPropertyOp6
 70
     1
102
RTVSPropertyOp7
 70
     1
102
RTVSPropertyOp8
 70
     1
102
RTVSPropertyOp9
 70
     1
102
RTVSPropertyOp10
 70
     1
102
RTVSPropertyOp11
 70
     1
102
RTVSPropertyOp12
 70
     1
102
RTVSPropertyOp13
 70
     1
102
RTVSPropertyOp14
 70
     1
102
RTVSPropertyOp15
 70
     1
102
RTVSPropertyOp16
 70
     1
102
RTVSPropertyOp17
 70
     1
102
RTVSPropertyOp18
 70
     1
102
RTVSPropertyOp19
 70
     1
102
RTVSPropertyOp20
 70
     1
102
RTVSPropertyOp21
 70
     1
102
RTVSPropertyOp22
 70
     1
102
RTVSPropertyOp23
 70
     1
102
RTVSPropertyOp24
 70
     1
102
RTVSPropertyOp25
 70
     1
102
RTVSPropertyOp26
 70
     1
102
RTVSPropertyOp27
 70
     1
102
RTVSPropertyOp28
 70
     1
102
RTVSPropertyOp29
 70
     1
102
RTVSPropertyOp30
 70
     1
102
RTVSPropertyOp31
 70
     1
102
RTVSPropertyOp32
 70
     1
102
RTVSPropertyOp33
 70
     1
102
RTVSPropertyOp34
 70
     1
102
RTVSPropertyOp35
 70
     1
102
RTVSPropertyOp36
 70
     1
102
RTVSPropertyOp37
 70
     1
102
RTVSPropertyOp38
 70
     1
102
RTVSPropertyOp39
 70
     1
102
RTVSPropertyOp40
 70
     1
102
RTVSPropertyOp41
 70
     1
102
RTVSPropertyOp42
 70
     1
102
RTVSPropertyOp43
 70
     1
102
RTVSPropertyOp44
 70
     1
102
RTVSPropertyOp45
 70
     1
102
RTVSPropertyOp46
 70
     1
102
RTVSPropertyOp47
 70
     1
102
RTVSPropertyOp48
 70
     1
102
RTVSPropertyOp49
 70
     1
102
RTVSPropertyOp50
 70
     1
102
RTVSPropertyOp51
 70
     0
102
RTVSPropertyOp52
 70
     0
102
RTVSPropertyOp53
 70
     1
102
RTVSPropertyOp54
 70
     1
102
RTVSPropertyOp55
 70
     1
102
RTVSPropertyOp56
 70
     1
102
RTVSPropertyOp57
 70
     1
102
RTVSPropertyOp58
 70
     1
102
RTVSPropertyOp59
 70
     1
102
RTVSPropertyOp60
 70
     1
102
RTVSPropertyOp61
 70
     1
102
RTVSPropertyOp62
 70
     1
  0
XRECORD
  5
352
102
{ACAD_REACTORS
330
351
102
}
330
351
100
AcDbXrecord
280
     1
102
RTVSPost2010Prop28
280
     0
102
RTVSPost2010PropOp28
 70
     1
102
RTVSPost2010Prop29
280
     1
102
RTVSPost2010PropOp29
 70
     1
102
RTVSPost2010Prop30
280
     1
102
RTVSPost2010PropOp30
 70
     1
102
RTVSPost2010Prop31
280
     0
102
RTVSPost2010PropOp31
 70
     1
102
RTVSPost2010Prop32
280
     0
102
RTVSPost2010PropOp32
 70
     1
102
RTVSPost2010Prop33
280
     0
102
RTVSPost2010PropOp33
 70
     1
102
RTVSPost2010Prop34
280
     0
102
RTVSPost2010PropOp34
 70
     1
102
RTVSPost2010Prop35
280
     0
102
RTVSPost2010PropOp35
 70
     1
102
RTVSPost2010Prop36
280
     0
102
RTVSPost2010PropOp36
 70
     1
102
RTVSPost2010Prop37
 90
       50
102
RTVSPost2010PropOp37
 70
     1
102
RTVSPost2010Prop38
140
0.0
102
RTVSPost2010PropOp38
 70
     1
102
RTVSPost2010Prop39
140
1.0
102
RTVSPost2010PropOp39
 70
     1
102
RTVSPost2010Prop40
 90
        0
102
RTVSPost2010PropOp40
 70
     1
102
RTVSPost2010Prop41ColorIndex
 90
       18
102
RTVSPost2010Prop41ColorRGB
 90
        0
102
RTVSPost2010PropOp41
 70
     1
102
RTVSPost2010Prop42
 90
       50
102
RTVSPost2010PropOp42
 70
     1
102
RTVSPost2010Prop43
 90
        3
102
RTVSPost2010PropOp43
 70
     1
102
RTVSPost2010Prop44ColorIndex
 90
        5
102
RTVSPost2010Prop44ColorRGB
 90
      255
102
RTVSPost2010PropOp44
 70
     1
102
RTVSPost2010Prop45
280
     0
102
RTVSPost2010PropOp45
 70
     1
102
RTVSPost2010Prop46
 90
       50
102
RTVSPost2010PropOp46
 70
     1
102
RTVSPost2010Prop47
 90
       50
102
RTVSPost2010PropOp47
 70
     1
102
RTVSPost2010Prop48
 90
       50
102
RTVSPost2010PropOp48
 70
     1
102
RTVSPost2010Prop49
280
     0
102
RTVSPost2010PropOp49
 70
     1
102
RTVSPost2010Prop50
 90
       50
102
RTVSPost2010PropOp50
 70
     1
102
RTVSPost2010Prop51ColorIndex
 90
      256
102
RTVSPost2010Prop51ColorRGB
 90
-16777216
102
RTVSPost2010PropOp51
 70
     0
102
RTVSPost2010Prop52
140
1.0
102
RTVSPost2010PropOp52
 70
     0
102
RTVSPost2010Prop53
 90
        2
102
RTVSPost2010PropOp53
 70
     1
102
RTVSPost2010Prop54
  1
strokes_ogs.tif
102
RTVSPost2010PropOp54
 70
     1
102
RTVSPost2010Prop55
280
     0
102
RTVSPost2010PropOp55
 70
     1
102
RTVSPost2010Prop56
140
1.0
102
RTVSPost2010PropOp56
 70
     1
102
RTVSPost2010Prop57
140
1.0
102
RTVSPost2010PropOp57
 70
     1
102
RTVSPropertyOp0
 70
     1
102
RTVSPropertyOp1
 70
     1
102
RTVSPropertyOp2
 70
     1
102
RTVSPropertyOp3
 70
     1
102
RTVSPropertyOp4
 70
     1
102
RTVSPropertyOp5
 70
     1
102
RTVSPropertyOp6
 70
     1
102
RTVSPropertyOp7
 70
     1
102
RTVSPropertyOp8
 70
     1
102
RTVSPropertyOp9
 70
     1
102
RTVSPropertyOp10
 70
     1
102
RTVSPropertyOp11
 70
     1
102
RTVSPropertyOp12
 70
     1
102
RTVSPropertyOp13
 70
     1
102
RTVSPropertyOp14
 70
     1
102
RTVSPropertyOp15
 70
     1
102
RTVSPropertyOp16
 70
     1
102
RTVSPropertyOp17
 70
     1
102
RTVSPropertyOp18
 70
     1
102
RTVSPropertyOp19
 70
     1
102
RTVSPropertyOp20
 70
     1
102
RTVSPropertyOp21
 70
     1
102
RTVSPropertyOp22
 70
     1
102
RTVSPropertyOp23
 70
     1
102
RTVSPropertyOp24
 70
     1
102
RTVSPropertyOp25
 70
     1
102
RTVSPropertyOp26
 70
     1
102
RTVSPropertyOp27
 70
     1
102
RTVSPropertyOp28
 70
     1
102
RTVSPropertyOp29
 70
     1
102
RTVSPropertyOp30
 70
     1
102
RTVSPropertyOp31
 70
     1
102
RTVSPropertyOp32
 70
     1
102
RTVSPropertyOp33
 70
     1
102
RTVSPropertyOp34
 70
     1
102
RTVSPropertyOp35
 70
     1
102
RTVSPropertyOp36
 70
     1
102
RTVSPropertyOp37
 70
     1
102
RTVSPropertyOp38
 70
     1
102
RTVSPropertyOp39
 70
     1
102
RTVSPropertyOp40
 70
     1
102
RTVSPropertyOp41
 70
     1
102
RTVSPropertyOp42
 70
     1
102
RTVSPropertyOp43
 70
     1
102
RTVSPropertyOp44
 70
     1
102
RTVSPropertyOp45
 70
     1
102
RTVSPropertyOp46
 70
     1
102
RTVSPropertyOp47
 70
     1
102
RTVSPropertyOp48
 70
     1
102
RTVSPropertyOp49
 70
     1
102
RTVSPropertyOp50
 70
     1
102
RTVSPropertyOp51
 70
     0
102
RTVSPropertyOp52
 70
     0
102
RTVSPropertyOp53
 70
     1
102
RTVSPropertyOp54
 70
     1
102
RTVSPropertyOp55
 70
     1
102
RTVSPropertyOp56
 70
     1
102
RTVSPropertyOp57
 70
     1
102
RTVSPropertyOp58
 70
     1
102
RTVSPropertyOp59
 70
     1
102
RTVSPropertyOp60
 70
     1
102
RTVSPropertyOp61
 70
     1
102
RTVSPropertyOp62
 70
     1
  0
XRECORD
  5
344
102
{ACAD_REACTORS
330
343
102
}
330
343
100
AcDbXrecord
280
     1
102
RTVSPost2010Prop28
280
     0
102
RTVSPost2010PropOp28
 70
     1
102
RTVSPost2010Prop29
280
     1
102
RTVSPost2010PropOp29
 70
     1
102
RTVSPost2010Prop30
280
     1
102
RTVSPost2010PropOp30
 70
     1
102
RTVSPost2010Prop31
280
     0
102
RTVSPost2010PropOp31
 70
     1
102
RTVSPost2010Prop32
280
     0
102
RTVSPost2010PropOp32
 70
     1
102
RTVSPost2010Prop33
280
     0
102
RTVSPost2010PropOp33
 70
     1
102
RTVSPost2010Prop34
280
     0
102
RTVSPost2010PropOp34
 70
     1
102
RTVSPost2010Prop35
280
     0
102
RTVSPost2010PropOp35
 70
     1
102
RTVSPost2010Prop36
280
     0
102
RTVSPost2010PropOp36
 70
     1
102
RTVSPost2010Prop37
 90
       50
102
RTVSPost2010PropOp37
 70
     1
102
RTVSPost2010Prop38
140
0.0
102
RTVSPost2010PropOp38
 70
     1
102
RTVSPost2010Prop39
140
1.0
102
RTVSPost2010PropOp39
 70
     1
102
RTVSPost2010Prop40
 90
        0
102
RTVSPost2010PropOp40
 70
     1
102
RTVSPost2010Prop41ColorIndex
 90
       18
102
RTVSPost2010Prop41ColorRGB
 90
        0
102
RTVSPost2010PropOp41
 70
     1
102
RTVSPost2010Prop42
 90
       50
102
RTVSPost2010PropOp42
 70
     1
102
RTVSPost2010Prop43
 90
        3
102
RTVSPost2010PropOp43
 70
     1
102
RTVSPost2010Prop44ColorIndex
 90
        5
102
RTVSPost2010Prop44ColorRGB
 90
      255
102
RTVSPost2010PropOp44
 70
     1
102
RTVSPost2010Prop45
280
     0
102
RTVSPost2010PropOp45
 70
     1
102
RTVSPost2010Prop46
 90
       50
102
RTVSPost2010PropOp46
 70
     1
102
RTVSPost2010Prop47
 90
       50
102
RTVSPost2010PropOp47
 70
     1
102
RTVSPost2010Prop48
 90
       50
102
RTVSPost2010PropOp48
 70
     1
102
RTVSPost2010Prop49
280
     0
102
RTVSPost2010PropOp49
 70
     1
102
RTVSPost2010Prop50
 90
       50
102
RTVSPost2010PropOp50
 70
     1
102
RTVSPost2010Prop51ColorIndex
 90
      256
102
RTVSPost2010Prop51ColorRGB
 90
-16777216
102
RTVSPost2010PropOp51
 70
     0
102
RTVSPost2010Prop52
140
1.0
102
RTVSPost2010PropOp52
 70
     0
102
RTVSPost2010Prop53
 90
        2
102
RTVSPost2010PropOp53
 70
     1
102
RTVSPost2010Prop54
  1
strokes_ogs.tif
102
RTVSPost2010PropOp54
 70
     1
102
RTVSPost2010Prop55
280
     0
102
RTVSPost2010PropOp55
 70
     1
102
RTVSPost2010Prop56
140
1.0
102
RTVSPost2010PropOp56
 70
     1
102
RTVSPost2010Prop57
140
1.0
102
RTVSPost2010PropOp57
 70
     1
102
RTVSPropertyOp0
 70
     1
102
RTVSPropertyOp1
 70
     1
102
RTVSPropertyOp2
 70
     1
102
RTVSPropertyOp3
 70
     1
102
RTVSPropertyOp4
 70
     1
102
RTVSPropertyOp5
 70
     1
102
RTVSPropertyOp6
 70
     1
102
RTVSPropertyOp7
 70
     1
102
RTVSPropertyOp8
 70
     1
102
RTVSPropertyOp9
 70
     1
102
RTVSPropertyOp10
 70
     1
102
RTVSPropertyOp11
 70
     1
102
RTVSPropertyOp12
 70
     1
102
RTVSPropertyOp13
 70
     1
102
RTVSPropertyOp14
 70
     1
102
RTVSPropertyOp15
 70
     1
102
RTVSPropertyOp16
 70
     1
102
RTVSPropertyOp17
 70
     1
102
RTVSPropertyOp18
 70
     1
102
RTVSPropertyOp19
 70
     1
102
RTVSPropertyOp20
 70
     1
102
RTVSPropertyOp21
 70
     1
102
RTVSPropertyOp22
 70
     1
102
RTVSPropertyOp23
 70
     1
102
RTVSPropertyOp24
 70
     1
102
RTVSPropertyOp25
 70
     1
102
RTVSPropertyOp26
 70
     1
102
RTVSPropertyOp27
 70
     1
102
RTVSPropertyOp28
 70
     1
102
RTVSPropertyOp29
 70
     1
102
RTVSPropertyOp30
 70
     1
102
RTVSPropertyOp31
 70
     1
102
RTVSPropertyOp32
 70
     1
102
RTVSPropertyOp33
 70
     1
102
RTVSPropertyOp34
 70
     1
102
RTVSPropertyOp35
 70
     1
102
RTVSPropertyOp36
 70
     1
102
RTVSPropertyOp37
 70
     1
102
RTVSPropertyOp38
 70
     1
102
RTVSPropertyOp39
 70
     1
102
RTVSPropertyOp40
 70
     1
102
RTVSPropertyOp41
 70
     1
102
RTVSPropertyOp42
 70
     1
102
RTVSPropertyOp43
 70
     1
102
RTVSPropertyOp44
 70
     1
102
RTVSPropertyOp45
 70
     1
102
RTVSPropertyOp46
 70
     1
102
RTVSPropertyOp47
 70
     1
102
RTVSPropertyOp48
 70
     1
102
RTVSPropertyOp49
 70
     1
102
RTVSPropertyOp50
 70
     1
102
RTVSPropertyOp51
 70
     0
102
RTVSPropertyOp52
 70
     0
102
RTVSPropertyOp53
 70
     1
102
RTVSPropertyOp54
 70
     1
102
RTVSPropertyOp55
 70
     1
102
RTVSPropertyOp56
 70
     1
102
RTVSPropertyOp57
 70
     1
102
RTVSPropertyOp58
 70
     1
102
RTVSPropertyOp59
 70
     1
102
RTVSPropertyOp60
 70
     1
102
RTVSPropertyOp61
 70
     1
102
RTVSPropertyOp62
 70
     1
  0
XRECORD
  5
348
102
{ACAD_REACTORS
330
347
102
}
330
347
100
AcDbXrecord
280
     1
102
RTVSPost2010Prop28
280
     0
102
RTVSPost2010PropOp28
 70
     1
102
RTVSPost2010Prop29
280
     1
102
RTVSPost2010PropOp29
 70
     1
102
RTVSPost2010Prop30
280
     1
102
RTVSPost2010PropOp30
 70
     1
102
RTVSPost2010Prop31
280
     0
102
RTVSPost2010PropOp31
 70
     1
102
RTVSPost2010Prop32
280
     0
102
RTVSPost2010PropOp32
 70
     1
102
RTVSPost2010Prop33
280
     0
102
RTVSPost2010PropOp33
 70
     1
102
RTVSPost2010Prop34
280
     0
102
RTVSPost2010PropOp34
 70
     1
102
RTVSPost2010Prop35
280
     0
102
RTVSPost2010PropOp35
 70
     1
102
RTVSPost2010Prop36
280
     0
102
RTVSPost2010PropOp36
 70
     1
102
RTVSPost2010Prop37
 90
       50
102
RTVSPost2010PropOp37
 70
     1
102
RTVSPost2010Prop38
140
0.0
102
RTVSPost2010PropOp38
 70
     1
102
RTVSPost2010Prop39
140
1.0
102
RTVSPost2010PropOp39
 70
     1
102
RTVSPost2010Prop40
 90
        0
102
RTVSPost2010PropOp40
 70
     1
102
RTVSPost2010Prop41ColorIndex
 90
       18
102
RTVSPost2010Prop41ColorRGB
 90
        0
102
RTVSPost2010PropOp41
 70
     1
102
RTVSPost2010Prop42
 90
       50
102
RTVSPost2010PropOp42
 70
     1
102
RTVSPost2010Prop43
 90
        3
102
RTVSPost2010PropOp43
 70
     1
102
RTVSPost2010Prop44ColorIndex
 90
        5
102
RTVSPost2010Prop44ColorRGB
 90
      255
102
RTVSPost2010PropOp44
 70
     1
102
RTVSPost2010Prop45
280
     0
102
RTVSPost2010PropOp45
 70
     1
102
RTVSPost2010Prop46
 90
       50
102
RTVSPost2010PropOp46
 70
     1
102
RTVSPost2010Prop47
 90
       50
102
RTVSPost2010PropOp47
 70
     1
102
RTVSPost2010Prop48
 90
       50
102
RTVSPost2010PropOp48
 70
     1
102
RTVSPost2010Prop49
280
     0
102
RTVSPost2010PropOp49
 70
     1
102
RTVSPost2010Prop50
 90
       50
102
RTVSPost2010PropOp50
 70
     1
102
RTVSPost2010Prop51ColorIndex
 90
      256
102
RTVSPost2010Prop51ColorRGB
 90
-16777216
102
RTVSPost2010PropOp51
 70
     0
102
RTVSPost2010Prop52
140
1.0
102
RTVSPost2010PropOp52
 70
     0
102
RTVSPost2010Prop53
 90
        2
102
RTVSPost2010PropOp53
 70
     1
102
RTVSPost2010Prop54
  1
strokes_ogs.tif
102
RTVSPost2010PropOp54
 70
     1
102
RTVSPost2010Prop55
280
     0
102
RTVSPost2010PropOp55
 70
     1
102
RTVSPost2010Prop56
140
1.0
102
RTVSPost2010PropOp56
 70
     1
102
RTVSPost2010Prop57
140
1.0
102
RTVSPost2010PropOp57
 70
     1
102
RTVSPropertyOp0
 70
     1
102
RTVSPropertyOp1
 70
     1
102
RTVSPropertyOp2
 70
     1
102
RTVSPropertyOp3
 70
     1
102
RTVSPropertyOp4
 70
     1
102
RTVSPropertyOp5
 70
     1
102
RTVSPropertyOp6
 70
     1
102
RTVSPropertyOp7
 70
     1
102
RTVSPropertyOp8
 70
     1
102
RTVSPropertyOp9
 70
     1
102
RTVSPropertyOp10
 70
     1
102
RTVSPropertyOp11
 70
     1
102
RTVSPropertyOp12
 70
     1
102
RTVSPropertyOp13
 70
     1
102
RTVSPropertyOp14
 70
     1
102
RTVSPropertyOp15
 70
     1
102
RTVSPropertyOp16
 70
     1
102
RTVSPropertyOp17
 70
     1
102
RTVSPropertyOp18
 70
     1
102
RTVSPropertyOp19
 70
     1
102
RTVSPropertyOp20
 70
     1
102
RTVSPropertyOp21
 70
     1
102
RTVSPropertyOp22
 70
     1
102
RTVSPropertyOp23
 70
     1
102
RTVSPropertyOp24
 70
     1
102
RTVSPropertyOp25
 70
     1
102
RTVSPropertyOp26
 70
     1
102
RTVSPropertyOp27
 70
     1
102
RTVSPropertyOp28
 70
     1
102
RTVSPropertyOp29
 70
     1
102
RTVSPropertyOp30
 70
     1
102
RTVSPropertyOp31
 70
     1
102
RTVSPropertyOp32
 70
     1
102
RTVSPropertyOp33
 70
     1
102
RTVSPropertyOp34
 70
     1
102
RTVSPropertyOp35
 70
     1
102
RTVSPropertyOp36
 70
     1
102
RTVSPropertyOp37
 70
     1
102
RTVSPropertyOp38
 70
     1
102
RTVSPropertyOp39
 70
     1
102
RTVSPropertyOp40
 70
     1
102
RTVSPropertyOp41
 70
     1
102
RTVSPropertyOp42
 70
     1
102
RTVSPropertyOp43
 70
     1
102
RTVSPropertyOp44
 70
     1
102
RTVSPropertyOp45
 70
     1
102
RTVSPropertyOp46
 70
     1
102
RTVSPropertyOp47
 70
     1
102
RTVSPropertyOp48
 70
     1
102
RTVSPropertyOp49
 70
     1
102
RTVSPropertyOp50
 70
     1
102
RTVSPropertyOp51
 70
     0
102
RTVSPropertyOp52
 70
     0
102
RTVSPropertyOp53
 70
     1
102
RTVSPropertyOp54
 70
     1
102
RTVSPropertyOp55
 70
     1
102
RTVSPropertyOp56
 70
     1
102
RTVSPropertyOp57
 70
     1
102
RTVSPropertyOp58
 70
     1
102
RTVSPropertyOp59
 70
     1
102
RTVSPropertyOp60
 70
     1
102
RTVSPropertyOp61
 70
     1
102
RTVSPropertyOp62
 70
     1
  0
XRECORD
  5
362
102
{ACAD_REACTORS
330
361
102
}
330
361
100
AcDbXrecord
280
     1
102
RTVSPost2010Prop28
280
     0
102
RTVSPost2010PropOp28
 70
     1
102
RTVSPost2010Prop29
280
     1
102
RTVSPost2010PropOp29
 70
     1
102
RTVSPost2010Prop30
280
     1
102
RTVSPost2010PropOp30
 70
     1
102
RTVSPost2010Prop31
280
     0
102
RTVSPost2010PropOp31
 70
     1
102
RTVSPost2010Prop32
280
     0
102
RTVSPost2010PropOp32
 70
     1
102
RTVSPost2010Prop33
280
     0
102
RTVSPost2010PropOp33
 70
     1
102
RTVSPost2010Prop34
280
     0
102
RTVSPost2010PropOp34
 70
     1
102
RTVSPost2010Prop35
280
     0
102
RTVSPost2010PropOp35
 70
     1
102
RTVSPost2010Prop36
280
     0
102
RTVSPost2010PropOp36
 70
     1
102
RTVSPost2010Prop37
 90
       50
102
RTVSPost2010PropOp37
 70
     0
102
RTVSPost2010Prop38
140
0.0
102
RTVSPost2010PropOp38
 70
     0
102
RTVSPost2010Prop39
140
1.0
102
RTVSPost2010PropOp39
 70
     0
102
RTVSPost2010Prop40
 90
        0
102
RTVSPost2010PropOp40
 70
     0
102
RTVSPost2010Prop41ColorIndex
 90
       18
102
RTVSPost2010Prop41ColorRGB
 90
        0
102
RTVSPost2010PropOp41
 70
     0
102
RTVSPost2010Prop42
 90
       50
102
RTVSPost2010PropOp42
 70
     0
102
RTVSPost2010Prop43
 90
        3
102
RTVSPost2010PropOp43
 70
     0
102
RTVSPost2010Prop44ColorIndex
 90
        5
102
RTVSPost2010Prop44ColorRGB
 90
      255
102
RTVSPost2010PropOp44
 70
     0
102
RTVSPost2010Prop45
280
     0
102
RTVSPost2010PropOp45
 70
     1
102
RTVSPost2010Prop46
 90
       50
102
RTVSPost2010PropOp46
 70
     0
102
RTVSPost2010Prop47
 90
       50
102
RTVSPost2010PropOp47
 70
     0
102
RTVSPost2010Prop48
 90
       50
102
RTVSPost2010PropOp48
 70
     0
102
RTVSPost2010Prop49
280
     0
102
RTVSPost2010PropOp49
 70
     1
102
RTVSPost2010Prop50
 90
       50
102
RTVSPost2010PropOp50
 70
     0
102
RTVSPost2010Prop51ColorIndex
 90
      256
102
RTVSPost2010Prop51ColorRGB
 90
-16777216
102
RTVSPost2010PropOp51
 70
     0
102
RTVSPost2010Prop52
140
1.0
102
RTVSPost2010PropOp52
 70
     0
102
RTVSPost2010Prop53
 90
        2
102
RTVSPost2010PropOp53
 70
     0
102
RTVSPost2010Prop54
  1
strokes_ogs.tif
102
RTVSPost2010PropOp54
 70
     0
102
RTVSPost2010Prop55
280
     0
102
RTVSPost2010PropOp55
 70
     1
102
RTVSPost2010Prop56
140
1.0
102
RTVSPost2010PropOp56
 70
     0
102
RTVSPost2010Prop57
140
1.0
102
RTVSPost2010PropOp57
 70
     0
102
RTVSPropertyOp0
 70
     0
102
RTVSPropertyOp1
 70
     0
102
RTVSPropertyOp2
 70
     0
102
RTVSPropertyOp3
 70
     0
102
RTVSPropertyOp4
 70
     0
102
RTVSPropertyOp5
 70
     0
102
RTVSPropertyOp6
 70
     0
102
RTVSPropertyOp7
 70
     0
102
RTVSPropertyOp8
 70
     0
102
RTVSPropertyOp9
 70
     0
102
RTVSPropertyOp10
 70
     0
102
RTVSPropertyOp11
 70
     0
102
RTVSPropertyOp12
 70
     0
102
RTVSPropertyOp13
 70
     0
102
RTVSPropertyOp14
 70
     2
102
RTVSPropertyOp15
 70
     0
102
RTVSPropertyOp16
 70
     0
102
RTVSPropertyOp17
 70
     0
102
RTVSPropertyOp18
 70
     0
102
RTVSPropertyOp19
 70
     0
102
RTVSPropertyOp20
 70
     0
102
RTVSPropertyOp21
 70
     0
102
RTVSPropertyOp22
 70
     0
102
RTVSPropertyOp23
 70
     0
102
RTVSPropertyOp24
 70
     0
102
RTVSPropertyOp25
 70
     0
102
RTVSPropertyOp26
 70
     0
102
RTVSPropertyOp27
 70
     0
102
RTVSPropertyOp28
 70
     1
102
RTVSPropertyOp29
 70
     1
102
RTVSPropertyOp30
 70
     1
102
RTVSPropertyOp31
 70
     1
102
RTVSPropertyOp32
 70
     1
102
RTVSPropertyOp33
 70
     1
102
RTVSPropertyOp34
 70
     1
102
RTVSPropertyOp35
 70
     1
102
RTVSPropertyOp36
 70
     1
102
RTVSPropertyOp37
 70
     0
102
RTVSPropertyOp38
 70
     0
102
RTVSPropertyOp39
 70
     0
102
RTVSPropertyOp40
 70
     0
102
RTVSPropertyOp41
 70
     0
102
RTVSPropertyOp42
 70
     0
102
RTVSPropertyOp43
 70
     0
102
RTVSPropertyOp44
 70
     0
102
RTVSPropertyOp45
 70
     1
102
RTVSPropertyOp46
 70
     0
102
RTVSPropertyOp47
 70
     0
102
RTVSPropertyOp48
 70
     0
102
RTVSPropertyOp49
 70
     1
102
RTVSPropertyOp50
 70
     0
102
RTVSPropertyOp51
 70
     0
102
RTVSPropertyOp52
 70
     0
102
RTVSPropertyOp53
 70
     0
102
RTVSPropertyOp54
 70
     0
102
RTVSPropertyOp55
 70
     1
102
RTVSPropertyOp56
 70
     0
102
RTVSPropertyOp57
 70
     0
102
RTVSPropertyOp58
 70
     0
102
RTVSPropertyOp59
 70
     0
102
RTVSPropertyOp60
 70
     0
102
RTVSPropertyOp61
 70
     0
102
RTVSPropertyOp62
 70
     0
  0
XRECORD
  5
350
102
{ACAD_REACTORS
330
34F
102
}
330
34F
100
AcDbXrecord
280
     1
102
RTVSPost2010Prop28
280
     0
102
RTVSPost2010PropOp28
 70
     1
102
RTVSPost2010Prop29
280
     1
102
RTVSPost2010PropOp29
 70
     1
102
RTVSPost2010Prop30
280
     1
102
RTVSPost2010PropOp30
 70
     1
102
RTVSPost2010Prop31
280
     0
102
RTVSPost2010PropOp31
 70
     1
102
RTVSPost2010Prop32
280
     0
102
RTVSPost2010PropOp32
 70
     1
102
RTVSPost2010Prop33
280
     0
102
RTVSPost2010PropOp33
 70
     1
102
RTVSPost2010Prop34
280
     0
102
RTVSPost2010PropOp34
 70
     1
102
RTVSPost2010Prop35
280
     0
102
RTVSPost2010PropOp35
 70
     1
102
RTVSPost2010Prop36
280
     0
102
RTVSPost2010PropOp36
 70
     1
102
RTVSPost2010Prop37
 90
       50
102
RTVSPost2010PropOp37
 70
     1
102
RTVSPost2010Prop38
140
0.0
102
RTVSPost2010PropOp38
 70
     1
102
RTVSPost2010Prop39
140
1.0
102
RTVSPost2010PropOp39
 70
     1
102
RTVSPost2010Prop40
 90
        0
102
RTVSPost2010PropOp40
 70
     1
102
RTVSPost2010Prop41ColorIndex
 90
       18
102
RTVSPost2010Prop41ColorRGB
 90
        0
102
RTVSPost2010PropOp41
 70
     1
102
RTVSPost2010Prop42
 90
       50
102
RTVSPost2010PropOp42
 70
     1
102
RTVSPost2010Prop43
 90
        3
102
RTVSPost2010PropOp43
 70
     1
102
RTVSPost2010Prop44ColorIndex
 90
        5
102
RTVSPost2010Prop44ColorRGB
 90
      255
102
RTVSPost2010PropOp44
 70
     1
102
RTVSPost2010Prop45
280
     0
102
RTVSPost2010PropOp45
 70
     1
102
RTVSPost2010Prop46
 90
       50
102
RTVSPost2010PropOp46
 70
     1
102
RTVSPost2010Prop47
 90
       50
102
RTVSPost2010PropOp47
 70
     1
102
RTVSPost2010Prop48
 90
       50
102
RTVSPost2010PropOp48
 70
     1
102
RTVSPost2010Prop49
280
     0
102
RTVSPost2010PropOp49
 70
     1
102
RTVSPost2010Prop50
 90
       50
102
RTVSPost2010PropOp50
 70
     1
102
RTVSPost2010Prop51ColorIndex
 90
      256
102
RTVSPost2010Prop51ColorRGB
 90
-16777216
102
RTVSPost2010PropOp51
 70
     0
102
RTVSPost2010Prop52
140
1.0
102
RTVSPost2010PropOp52
 70
     0
102
RTVSPost2010Prop53
 90
        2
102
RTVSPost2010PropOp53
 70
     1
102
RTVSPost2010Prop54
  1
strokes_ogs.tif
102
RTVSPost2010PropOp54
 70
     1
102
RTVSPost2010Prop55
280
     0
102
RTVSPost2010PropOp55
 70
     1
102
RTVSPost2010Prop56
140
1.0
102
RTVSPost2010PropOp56
 70
     1
102
RTVSPost2010Prop57
140
1.0
102
RTVSPost2010PropOp57
 70
     1
102
RTVSPropertyOp0
 70
     1
102
RTVSPropertyOp1
 70
     1
102
RTVSPropertyOp2
 70
     1
102
RTVSPropertyOp3
 70
     1
102
RTVSPropertyOp4
 70
     1
102
RTVSPropertyOp5
 70
     1
102
RTVSPropertyOp6
 70
     1
102
RTVSPropertyOp7
 70
     1
102
RTVSPropertyOp8
 70
     1
102
RTVSPropertyOp9
 70
     1
102
RTVSPropertyOp10
 70
     1
102
RTVSPropertyOp11
 70
     1
102
RTVSPropertyOp12
 70
     1
102
RTVSPropertyOp13
 70
     1
102
RTVSPropertyOp14
 70
     1
102
RTVSPropertyOp15
 70
     1
102
RTVSPropertyOp16
 70
     1
102
RTVSPropertyOp17
 70
     1
102
RTVSPropertyOp18
 70
     1
102
RTVSPropertyOp19
 70
     1
102
RTVSPropertyOp20
 70
     1
102
RTVSPropertyOp21
 70
     1
102
RTVSPropertyOp22
 70
     1
102
RTVSPropertyOp23
 70
     1
102
RTVSPropertyOp24
 70
     1
102
RTVSPropertyOp25
 70
     1
102
RTVSPropertyOp26
 70
     1
102
RTVSPropertyOp27
 70
     1
102
RTVSPropertyOp28
 70
     1
102
RTVSPropertyOp29
 70
     1
102
RTVSPropertyOp30
 70
     1
102
RTVSPropertyOp31
 70
     1
102
RTVSPropertyOp32
 70
     1
102
RTVSPropertyOp33
 70
     1
102
RTVSPropertyOp34
 70
     1
102
RTVSPropertyOp35
 70
     1
102
RTVSPropertyOp36
 70
     1
102
RTVSPropertyOp37
 70
     1
102
RTVSPropertyOp38
 70
     1
102
RTVSPropertyOp39
 70
     1
102
RTVSPropertyOp40
 70
     1
102
RTVSPropertyOp41
 70
     1
102
RTVSPropertyOp42
 70
     1
102
RTVSPropertyOp43
 70
     1
102
RTVSPropertyOp44
 70
     1
102
RTVSPropertyOp45
 70
     1
102
RTVSPropertyOp46
 70
     1
102
RTVSPropertyOp47
 70
     1
102
RTVSPropertyOp48
 70
     1
102
RTVSPropertyOp49
 70
     1
102
RTVSPropertyOp50
 70
     1
102
RTVSPropertyOp51
 70
     0
102
RTVSPropertyOp52
 70
     0
102
RTVSPropertyOp53
 70
     1
102
RTVSPropertyOp54
 70
     1
102
RTVSPropertyOp55
 70
     1
102
RTVSPropertyOp56
 70
     1
102
RTVSPropertyOp57
 70
     1
102
RTVSPropertyOp58
 70
     1
102
RTVSPropertyOp59
 70
     1
102
RTVSPropertyOp60
 70
     1
102
RTVSPropertyOp61
 70
     1
102
RTVSPropertyOp62
 70
     1
  0
XRECORD
  5
334
102
{ACAD_REACTORS
330
333
102
}
330
333
100
AcDbXrecord
280
     1
102
RTVSPost2010Prop28
280
     0
102
RTVSPost2010PropOp28
 70
     1
102
RTVSPost2010Prop29
280
     1
102
RTVSPost2010PropOp29
 70
     1
102
RTVSPost2010Prop30
280
     1
102
RTVSPost2010PropOp30
 70
     1
102
RTVSPost2010Prop31
280
     0
102
RTVSPost2010PropOp31
 70
     1
102
RTVSPost2010Prop32
280
     0
102
RTVSPost2010PropOp32
 70
     1
102
RTVSPost2010Prop33
280
     0
102
RTVSPost2010PropOp33
 70
     1
102
RTVSPost2010Prop34
280
     0
102
RTVSPost2010PropOp34
 70
     1
102
RTVSPost2010Prop35
280
     0
102
RTVSPost2010PropOp35
 70
     1
102
RTVSPost2010Prop36
280
     0
102
RTVSPost2010PropOp36
 70
     1
102
RTVSPost2010Prop37
 90
       50
102
RTVSPost2010PropOp37
 70
     1
102
RTVSPost2010Prop38
140
0.0
102
RTVSPost2010PropOp38
 70
     1
102
RTVSPost2010Prop39
140
1.0
102
RTVSPost2010PropOp39
 70
     1
102
RTVSPost2010Prop40
 90
        0
102
RTVSPost2010PropOp40
 70
     1
102
RTVSPost2010Prop41ColorIndex
 90
       18
102
RTVSPost2010Prop41ColorRGB
 90
        0
102
RTVSPost2010PropOp41
 70
     1
102
RTVSPost2010Prop42
 90
       50
102
RTVSPost2010PropOp42
 70
     1
102
RTVSPost2010Prop43
 90
        3
102
RTVSPost2010PropOp43
 70
     1
102
RTVSPost2010Prop44ColorIndex
 90
        5
102
RTVSPost2010Prop44ColorRGB
 90
      255
102
RTVSPost2010PropOp44
 70
     1
102
RTVSPost2010Prop45
280
     0
102
RTVSPost2010PropOp45
 70
     1
102
RTVSPost2010Prop46
 90
       50
102
RTVSPost2010PropOp46
 70
     1
102
RTVSPost2010Prop47
 90
       50
102
RTVSPost2010PropOp47
 70
     1
102
RTVSPost2010Prop48
 90
       50
102
RTVSPost2010PropOp48
 70
     1
102
RTVSPost2010Prop49
280
     0
102
RTVSPost2010PropOp49
 70
     1
102
RTVSPost2010Prop50
 90
       50
102
RTVSPost2010PropOp50
 70
     1
102
RTVSPost2010Prop51ColorIndex
 90
      256
102
RTVSPost2010Prop51ColorRGB
 90
-16777216
102
RTVSPost2010PropOp51
 70
     0
102
RTVSPost2010Prop52
140
1.0
102
RTVSPost2010PropOp52
 70
     0
102
RTVSPost2010Prop53
 90
        2
102
RTVSPost2010PropOp53
 70
     1
102
RTVSPost2010Prop54
  1
strokes_ogs.tif
102
RTVSPost2010PropOp54
 70
     1
102
RTVSPost2010Prop55
280
     0
102
RTVSPost2010PropOp55
 70
     1
102
RTVSPost2010Prop56
140
1.0
102
RTVSPost2010PropOp56
 70
     1
102
RTVSPost2010Prop57
140
1.0
102
RTVSPost2010PropOp57
 70
     1
102
RTVSPropertyOp0
 70
     1
102
RTVSPropertyOp1
 70
     1
102
RTVSPropertyOp2
 70
     1
102
RTVSPropertyOp3
 70
     1
102
RTVSPropertyOp4
 70
     1
102
RTVSPropertyOp5
 70
     1
102
RTVSPropertyOp6
 70
     1
102
RTVSPropertyOp7
 70
     1
102
RTVSPropertyOp8
 70
     1
102
RTVSPropertyOp9
 70
     1
102
RTVSPropertyOp10
 70
     1
102
RTVSPropertyOp11
 70
     1
102
RTVSPropertyOp12
 70
     1
102
RTVSPropertyOp13
 70
     1
102
RTVSPropertyOp14
 70
     1
102
RTVSPropertyOp15
 70
     1
102
RTVSPropertyOp16
 70
     1
102
RTVSPropertyOp17
 70
     1
102
RTVSPropertyOp18
 70
     1
102
RTVSPropertyOp19
 70
     1
102
RTVSPropertyOp20
 70
     1
102
RTVSPropertyOp21
 70
     1
102
RTVSPropertyOp22
 70
     1
102
RTVSPropertyOp23
 70
     1
102
RTVSPropertyOp24
 70
     1
102
RTVSPropertyOp25
 70
     1
102
RTVSPropertyOp26
 70
     1
102
RTVSPropertyOp27
 70
     1
102
RTVSPropertyOp28
 70
     1
102
RTVSPropertyOp29
 70
     1
102
RTVSPropertyOp30
 70
     1
102
RTVSPropertyOp31
 70
     1
102
RTVSPropertyOp32
 70
     1
102
RTVSPropertyOp33
 70
     1
102
RTVSPropertyOp34
 70
     1
102
RTVSPropertyOp35
 70
     1
102
RTVSPropertyOp36
 70
     1
102
RTVSPropertyOp37
 70
     1
102
RTVSPropertyOp38
 70
     1
102
RTVSPropertyOp39
 70
     1
102
RTVSPropertyOp40
 70
     1
102
RTVSPropertyOp41
 70
     1
102
RTVSPropertyOp42
 70
     1
102
RTVSPropertyOp43
 70
     1
102
RTVSPropertyOp44
 70
     1
102
RTVSPropertyOp45
 70
     1
102
RTVSPropertyOp46
 70
     1
102
RTVSPropertyOp47
 70
     1
102
RTVSPropertyOp48
 70
     1
102
RTVSPropertyOp49
 70
     1
102
RTVSPropertyOp50
 70
     1
102
RTVSPropertyOp51
 70
     0
102
RTVSPropertyOp52
 70
     0
102
RTVSPropertyOp53
 70
     1
102
RTVSPropertyOp54
 70
     1
102
RTVSPropertyOp55
 70
     1
102
RTVSPropertyOp56
 70
     1
102
RTVSPropertyOp57
 70
     1
102
RTVSPropertyOp58
 70
     1
102
RTVSPropertyOp59
 70
     1
102
RTVSPropertyOp60
 70
     1
102
RTVSPropertyOp61
 70
     1
102
RTVSPropertyOp62
 70
     1
  0
XRECORD
  5
336
102
{ACAD_REACTORS
330
335
102
}
330
335
100
AcDbXrecord
280
     1
102
RTVSPost2010Prop28
280
     0
102
RTVSPost2010PropOp28
 70
     1
102
RTVSPost2010Prop29
280
     1
102
RTVSPost2010PropOp29
 70
     1
102
RTVSPost2010Prop30
280
     1
102
RTVSPost2010PropOp30
 70
     1
102
RTVSPost2010Prop31
280
     0
102
RTVSPost2010PropOp31
 70
     1
102
RTVSPost2010Prop32
280
     0
102
RTVSPost2010PropOp32
 70
     1
102
RTVSPost2010Prop33
280
     0
102
RTVSPost2010PropOp33
 70
     1
102
RTVSPost2010Prop34
280
     0
102
RTVSPost2010PropOp34
 70
     1
102
RTVSPost2010Prop35
280
     0
102
RTVSPost2010PropOp35
 70
     1
102
RTVSPost2010Prop36
280
     0
102
RTVSPost2010PropOp36
 70
     1
102
RTVSPost2010Prop37
 90
       50
102
RTVSPost2010PropOp37
 70
     1
102
RTVSPost2010Prop38
140
0.0
102
RTVSPost2010PropOp38
 70
     1
102
RTVSPost2010Prop39
140
1.0
102
RTVSPost2010PropOp39
 70
     1
102
RTVSPost2010Prop40
 90
        0
102
RTVSPost2010PropOp40
 70
     1
102
RTVSPost2010Prop41ColorIndex
 90
       18
102
RTVSPost2010Prop41ColorRGB
 90
        0
102
RTVSPost2010PropOp41
 70
     1
102
RTVSPost2010Prop42
 90
       50
102
RTVSPost2010PropOp42
 70
     1
102
RTVSPost2010Prop43
 90
        3
102
RTVSPost2010PropOp43
 70
     1
102
RTVSPost2010Prop44ColorIndex
 90
        5
102
RTVSPost2010Prop44ColorRGB
 90
      255
102
RTVSPost2010PropOp44
 70
     1
102
RTVSPost2010Prop45
280
     0
102
RTVSPost2010PropOp45
 70
     1
102
RTVSPost2010Prop46
 90
       50
102
RTVSPost2010PropOp46
 70
     1
102
RTVSPost2010Prop47
 90
       50
102
RTVSPost2010PropOp47
 70
     1
102
RTVSPost2010Prop48
 90
       50
102
RTVSPost2010PropOp48
 70
     1
102
RTVSPost2010Prop49
280
     0
102
RTVSPost2010PropOp49
 70
     1
102
RTVSPost2010Prop50
 90
       50
102
RTVSPost2010PropOp50
 70
     1
102
RTVSPost2010Prop51ColorIndex
 90
      256
102
RTVSPost2010Prop51ColorRGB
 90
-16777216
102
RTVSPost2010PropOp51
 70
     0
102
RTVSPost2010Prop52
140
1.0
102
RTVSPost2010PropOp52
 70
     0
102
RTVSPost2010Prop53
 90
        2
102
RTVSPost2010PropOp53
 70
     1
102
RTVSPost2010Prop54
  1
strokes_ogs.tif
102
RTVSPost2010PropOp54
 70
     1
102
RTVSPost2010Prop55
280
     0
102
RTVSPost2010PropOp55
 70
     1
102
RTVSPost2010Prop56
140
1.0
102
RTVSPost2010PropOp56
 70
     1
102
RTVSPost2010Prop57
140
1.0
102
RTVSPost2010PropOp57
 70
     1
102
RTVSPropertyOp0
 70
     1
102
RTVSPropertyOp1
 70
     1
102
RTVSPropertyOp2
 70
     1
102
RTVSPropertyOp3
 70
     1
102
RTVSPropertyOp4
 70
     1
102
RTVSPropertyOp5
 70
     1
102
RTVSPropertyOp6
 70
     1
102
RTVSPropertyOp7
 70
     1
102
RTVSPropertyOp8
 70
     1
102
RTVSPropertyOp9
 70
     1
102
RTVSPropertyOp10
 70
     1
102
RTVSPropertyOp11
 70
     1
102
RTVSPropertyOp12
 70
     1
102
RTVSPropertyOp13
 70
     1
102
RTVSPropertyOp14
 70
     1
102
RTVSPropertyOp15
 70
     1
102
RTVSPropertyOp16
 70
     1
102
RTVSPropertyOp17
 70
     1
102
RTVSPropertyOp18
 70
     1
102
RTVSPropertyOp19
 70
     1
102
RTVSPropertyOp20
 70
     1
102
RTVSPropertyOp21
 70
     1
102
RTVSPropertyOp22
 70
     1
102
RTVSPropertyOp23
 70
     1
102
RTVSPropertyOp24
 70
     1
102
RTVSPropertyOp25
 70
     1
102
RTVSPropertyOp26
 70
     1
102
RTVSPropertyOp27
 70
     1
102
RTVSPropertyOp28
 70
     1
102
RTVSPropertyOp29
 70
     1
102
RTVSPropertyOp30
 70
     1
102
RTVSPropertyOp31
 70
     1
102
RTVSPropertyOp32
 70
     1
102
RTVSPropertyOp33
 70
     1
102
RTVSPropertyOp34
 70
     1
102
RTVSPropertyOp35
 70
     1
102
RTVSPropertyOp36
 70
     1
102
RTVSPropertyOp37
 70
     1
102
RTVSPropertyOp38
 70
     1
102
RTVSPropertyOp39
 70
     1
102
RTVSPropertyOp40
 70
     1
102
RTVSPropertyOp41
 70
     1
102
RTVSPropertyOp42
 70
     1
102
RTVSPropertyOp43
 70
     1
102
RTVSPropertyOp44
 70
     1
102
RTVSPropertyOp45
 70
     1
102
RTVSPropertyOp46
 70
     1
102
RTVSPropertyOp47
 70
     1
102
RTVSPropertyOp48
 70
     1
102
RTVSPropertyOp49
 70
     1
102
RTVSPropertyOp50
 70
     1
102
RTVSPropertyOp51
 70
     0
102
RTVSPropertyOp52
 70
     0
102
RTVSPropertyOp53
 70
     1
102
RTVSPropertyOp54
 70
     1
102
RTVSPropertyOp55
 70
     1
102
RTVSPropertyOp56
 70
     1
102
RTVSPropertyOp57
 70
     1
102
RTVSPropertyOp58
 70
     1
102
RTVSPropertyOp59
 70
     1
102
RTVSPropertyOp60
 70
     1
102
RTVSPropertyOp61
 70
     1
102
RTVSPropertyOp62
 70
     1
  0
XRECORD
  5
338
102
{ACAD_REACTORS
330
337
102
}
330
337
100
AcDbXrecord
280
     1
102
RTVSPost2010Prop28
280
     0
102
RTVSPost2010PropOp28
 70
     1
102
RTVSPost2010Prop29
280
     1
102
RTVSPost2010PropOp29
 70
     1
102
RTVSPost2010Prop30
280
     1
102
RTVSPost2010PropOp30
 70
     1
102
RTVSPost2010Prop31
280
     0
102
RTVSPost2010PropOp31
 70
     1
102
RTVSPost2010Prop32
280
     0
102
RTVSPost2010PropOp32
 70
     1
102
RTVSPost2010Prop33
280
     0
102
RTVSPost2010PropOp33
 70
     1
102
RTVSPost2010Prop34
280
     0
102
RTVSPost2010PropOp34
 70
     1
102
RTVSPost2010Prop35
280
     0
102
RTVSPost2010PropOp35
 70
     1
102
RTVSPost2010Prop36
280
     0
102
RTVSPost2010PropOp36
 70
     1
102
RTVSPost2010Prop37
 90
       50
102
RTVSPost2010PropOp37
 70
     1
102
RTVSPost2010Prop38
140
0.0
102
RTVSPost2010PropOp38
 70
     1
102
RTVSPost2010Prop39
140
1.0
102
RTVSPost2010PropOp39
 70
     1
102
RTVSPost2010Prop40
 90
        0
102
RTVSPost2010PropOp40
 70
     1
102
RTVSPost2010Prop41ColorIndex
 90
       18
102
RTVSPost2010Prop41ColorRGB
 90
        0
102
RTVSPost2010PropOp41
 70
     1
102
RTVSPost2010Prop42
 90
       50
102
RTVSPost2010PropOp42
 70
     1
102
RTVSPost2010Prop43
 90
        3
102
RTVSPost2010PropOp43
 70
     1
102
RTVSPost2010Prop44ColorIndex
 90
        5
102
RTVSPost2010Prop44ColorRGB
 90
      255
102
RTVSPost2010PropOp44
 70
     1
102
RTVSPost2010Prop45
280
     0
102
RTVSPost2010PropOp45
 70
     1
102
RTVSPost2010Prop46
 90
       50
102
RTVSPost2010PropOp46
 70
     1
102
RTVSPost2010Prop47
 90
       50
102
RTVSPost2010PropOp47
 70
     1
102
RTVSPost2010Prop48
 90
       50
102
RTVSPost2010PropOp48
 70
     1
102
RTVSPost2010Prop49
280
     0
102
RTVSPost2010PropOp49
 70
     1
102
RTVSPost2010Prop50
 90
       50
102
RTVSPost2010PropOp50
 70
     1
102
RTVSPost2010Prop51ColorIndex
 90
      256
102
RTVSPost2010Prop51ColorRGB
 90
-16777216
102
RTVSPost2010PropOp51
 70
     0
102
RTVSPost2010Prop52
140
1.0
102
RTVSPost2010PropOp52
 70
     0
102
RTVSPost2010Prop53
 90
        2
102
RTVSPost2010PropOp53
 70
     1
102
RTVSPost2010Prop54
  1
strokes_ogs.tif
102
RTVSPost2010PropOp54
 70
     1
102
RTVSPost2010Prop55
280
     0
102
RTVSPost2010PropOp55
 70
     1
102
RTVSPost2010Prop56
140
1.0
102
RTVSPost2010PropOp56
 70
     1
102
RTVSPost2010Prop57
140
1.0
102
RTVSPost2010PropOp57
 70
     1
102
RTVSPropertyOp0
 70
     1
102
RTVSPropertyOp1
 70
     1
102
RTVSPropertyOp2
 70
     1
102
RTVSPropertyOp3
 70
     1
102
RTVSPropertyOp4
 70
     1
102
RTVSPropertyOp5
 70
     1
102
RTVSPropertyOp6
 70
     1
102
RTVSPropertyOp7
 70
     1
102
RTVSPropertyOp8
 70
     1
102
RTVSPropertyOp9
 70
     1
102
RTVSPropertyOp10
 70
     1
102
RTVSPropertyOp11
 70
     1
102
RTVSPropertyOp12
 70
     1
102
RTVSPropertyOp13
 70
     1
102
RTVSPropertyOp14
 70
     1
102
RTVSPropertyOp15
 70
     1
102
RTVSPropertyOp16
 70
     1
102
RTVSPropertyOp17
 70
     1
102
RTVSPropertyOp18
 70
     1
102
RTVSPropertyOp19
 70
     1
102
RTVSPropertyOp20
 70
     1
102
RTVSPropertyOp21
 70
     1
102
RTVSPropertyOp22
 70
     1
102
RTVSPropertyOp23
 70
     1
102
RTVSPropertyOp24
 70
     1
102
RTVSPropertyOp25
 70
     1
102
RTVSPropertyOp26
 70
     1
102
RTVSPropertyOp27
 70
     1
102
RTVSPropertyOp28
 70
     1
102
RTVSPropertyOp29
 70
     1
102
RTVSPropertyOp30
 70
     1
102
RTVSPropertyOp31
 70
     1
102
RTVSPropertyOp32
 70
     1
102
RTVSPropertyOp33
 70
     1
102
RTVSPropertyOp34
 70
     1
102
RTVSPropertyOp35
 70
     1
102
RTVSPropertyOp36
 70
     1
102
RTVSPropertyOp37
 70
     1
102
RTVSPropertyOp38
 70
     1
102
RTVSPropertyOp39
 70
     1
102
RTVSPropertyOp40
 70
     1
102
RTVSPropertyOp41
 70
     1
102
RTVSPropertyOp42
 70
     1
102
RTVSPropertyOp43
 70
     1
102
RTVSPropertyOp44
 70
     1
102
RTVSPropertyOp45
 70
     1
102
RTVSPropertyOp46
 70
     1
102
RTVSPropertyOp47
 70
     1
102
RTVSPropertyOp48
 70
     1
102
RTVSPropertyOp49
 70
     1
102
RTVSPropertyOp50
 70
     1
102
RTVSPropertyOp51
 70
     0
102
RTVSPropertyOp52
 70
     0
102
RTVSPropertyOp53
 70
     1
102
RTVSPropertyOp54
 70
     1
102
RTVSPropertyOp55
 70
     1
102
RTVSPropertyOp56
 70
     1
102
RTVSPropertyOp57
 70
     1
102
RTVSPropertyOp58
 70
     1
102
RTVSPropertyOp59
 70
     1
102
RTVSPropertyOp60
 70
     1
102
RTVSPropertyOp61
 70
     1
102
RTVSPropertyOp62
 70
     1
  0
XRECORD
  5
33A
102
{ACAD_REACTORS
330
339
102
}
330
339
100
AcDbXrecord
280
     1
102
RTVSPost2010Prop28
280
     0
102
RTVSPost2010PropOp28
 70
     1
102
RTVSPost2010Prop29
280
     1
102
RTVSPost2010PropOp29
 70
     1
102
RTVSPost2010Prop30
280
     1
102
RTVSPost2010PropOp30
 70
     1
102
RTVSPost2010Prop31
280
     0
102
RTVSPost2010PropOp31
 70
     1
102
RTVSPost2010Prop32
280
     0
102
RTVSPost2010PropOp32
 70
     1
102
RTVSPost2010Prop33
280
     0
102
RTVSPost2010PropOp33
 70
     1
102
RTVSPost2010Prop34
280
     0
102
RTVSPost2010PropOp34
 70
     1
102
RTVSPost2010Prop35
280
     0
102
RTVSPost2010PropOp35
 70
     1
102
RTVSPost2010Prop36
280
     0
102
RTVSPost2010PropOp36
 70
     1
102
RTVSPost2010Prop37
 90
       50
102
RTVSPost2010PropOp37
 70
     1
102
RTVSPost2010Prop38
140
0.0
102
RTVSPost2010PropOp38
 70
     1
102
RTVSPost2010Prop39
140
1.0
102
RTVSPost2010PropOp39
 70
     1
102
RTVSPost2010Prop40
 90
        0
102
RTVSPost2010PropOp40
 70
     1
102
RTVSPost2010Prop41ColorIndex
 90
       18
102
RTVSPost2010Prop41ColorRGB
 90
        0
102
RTVSPost2010PropOp41
 70
     1
102
RTVSPost2010Prop42
 90
       50
102
RTVSPost2010PropOp42
 70
     1
102
RTVSPost2010Prop43
 90
        3
102
RTVSPost2010PropOp43
 70
     1
102
RTVSPost2010Prop44ColorIndex
 90
        5
102
RTVSPost2010Prop44ColorRGB
 90
      255
102
RTVSPost2010PropOp44
 70
     1
102
RTVSPost2010Prop45
280
     0
102
RTVSPost2010PropOp45
 70
     1
102
RTVSPost2010Prop46
 90
       50
102
RTVSPost2010PropOp46
 70
     1
102
RTVSPost2010Prop47
 90
       50
102
RTVSPost2010PropOp47
 70
     1
102
RTVSPost2010Prop48
 90
       50
102
RTVSPost2010PropOp48
 70
     1
102
RTVSPost2010Prop49
280
     0
102
RTVSPost2010PropOp49
 70
     1
102
RTVSPost2010Prop50
 90
       50
102
RTVSPost2010PropOp50
 70
     1
102
RTVSPost2010Prop51ColorIndex
 90
      256
102
RTVSPost2010Prop51ColorRGB
 90
-16777216
102
RTVSPost2010PropOp51
 70
     0
102
RTVSPost2010Prop52
140
1.0
102
RTVSPost2010PropOp52
 70
     0
102
RTVSPost2010Prop53
 90
        2
102
RTVSPost2010PropOp53
 70
     1
102
RTVSPost2010Prop54
  1
strokes_ogs.tif
102
RTVSPost2010PropOp54
 70
     1
102
RTVSPost2010Prop55
280
     0
102
RTVSPost2010PropOp55
 70
     1
102
RTVSPost2010Prop56
140
1.0
102
RTVSPost2010PropOp56
 70
     1
102
RTVSPost2010Prop57
140
1.0
102
RTVSPost2010PropOp57
 70
     1
102
RTVSPropertyOp0
 70
     1
102
RTVSPropertyOp1
 70
     1
102
RTVSPropertyOp2
 70
     1
102
RTVSPropertyOp3
 70
     1
102
RTVSPropertyOp4
 70
     1
102
RTVSPropertyOp5
 70
     1
102
RTVSPropertyOp6
 70
     1
102
RTVSPropertyOp7
 70
     1
102
RTVSPropertyOp8
 70
     1
102
RTVSPropertyOp9
 70
     1
102
RTVSPropertyOp10
 70
     1
102
RTVSPropertyOp11
 70
     1
102
RTVSPropertyOp12
 70
     1
102
RTVSPropertyOp13
 70
     1
102
RTVSPropertyOp14
 70
     1
102
RTVSPropertyOp15
 70
     1
102
RTVSPropertyOp16
 70
     1
102
RTVSPropertyOp17
 70
     1
102
RTVSPropertyOp18
 70
     1
102
RTVSPropertyOp19
 70
     1
102
RTVSPropertyOp20
 70
     1
102
RTVSPropertyOp21
 70
     1
102
RTVSPropertyOp22
 70
     1
102
RTVSPropertyOp23
 70
     1
102
RTVSPropertyOp24
 70
     1
102
RTVSPropertyOp25
 70
     1
102
RTVSPropertyOp26
 70
     1
102
RTVSPropertyOp27
 70
     1
102
RTVSPropertyOp28
 70
     1
102
RTVSPropertyOp29
 70
     1
102
RTVSPropertyOp30
 70
     1
102
RTVSPropertyOp31
 70
     1
102
RTVSPropertyOp32
 70
     1
102
RTVSPropertyOp33
 70
     1
102
RTVSPropertyOp34
 70
     1
102
RTVSPropertyOp35
 70
     1
102
RTVSPropertyOp36
 70
     1
102
RTVSPropertyOp37
 70
     1
102
RTVSPropertyOp38
 70
     1
102
RTVSPropertyOp39
 70
     1
102
RTVSPropertyOp40
 70
     1
102
RTVSPropertyOp41
 70
     1
102
RTVSPropertyOp42
 70
     1
102
RTVSPropertyOp43
 70
     1
102
RTVSPropertyOp44
 70
     1
102
RTVSPropertyOp45
 70
     1
102
RTVSPropertyOp46
 70
     1
102
RTVSPropertyOp47
 70
     1
102
RTVSPropertyOp48
 70
     1
102
RTVSPropertyOp49
 70
     1
102
RTVSPropertyOp50
 70
     1
102
RTVSPropertyOp51
 70
     0
102
RTVSPropertyOp52
 70
     0
102
RTVSPropertyOp53
 70
     1
102
RTVSPropertyOp54
 70
     1
102
RTVSPropertyOp55
 70
     1
102
RTVSPropertyOp56
 70
     1
102
RTVSPropertyOp57
 70
     1
102
RTVSPropertyOp58
 70
     1
102
RTVSPropertyOp59
 70
     1
102
RTVSPropertyOp60
 70
     1
102
RTVSPropertyOp61
 70
     1
102
RTVSPropertyOp62
 70
     1
  0
XRECORD
  5
342
102
{ACAD_REACTORS
330
341
102
}
330
341
100
AcDbXrecord
280
     1
102
RTVSPost2010Prop28
280
     0
102
RTVSPost2010PropOp28
 70
     1
102
RTVSPost2010Prop29
280
     1
102
RTVSPost2010PropOp29
 70
     1
102
RTVSPost2010Prop30
280
     1
102
RTVSPost2010PropOp30
 70
     1
102
RTVSPost2010Prop31
280
     0
102
RTVSPost2010PropOp31
 70
     1
102
RTVSPost2010Prop32
280
     0
102
RTVSPost2010PropOp32
 70
     1
102
RTVSPost2010Prop33
280
     0
102
RTVSPost2010PropOp33
 70
     1
102
RTVSPost2010Prop34
280
     0
102
RTVSPost2010PropOp34
 70
     1
102
RTVSPost2010Prop35
280
     0
102
RTVSPost2010PropOp35
 70
     1
102
RTVSPost2010Prop36
280
     0
102
RTVSPost2010PropOp36
 70
     1
102
RTVSPost2010Prop37
 90
       50
102
RTVSPost2010PropOp37
 70
     1
102
RTVSPost2010Prop38
140
0.0
102
RTVSPost2010PropOp38
 70
     1
102
RTVSPost2010Prop39
140
1.0
102
RTVSPost2010PropOp39
 70
     1
102
RTVSPost2010Prop40
 90
        0
102
RTVSPost2010PropOp40
 70
     1
102
RTVSPost2010Prop41ColorIndex
 90
       18
102
RTVSPost2010Prop41ColorRGB
 90
        0
102
RTVSPost2010PropOp41
 70
     1
102
RTVSPost2010Prop42
 90
       50
102
RTVSPost2010PropOp42
 70
     1
102
RTVSPost2010Prop43
 90
        3
102
RTVSPost2010PropOp43
 70
     1
102
RTVSPost2010Prop44ColorIndex
 90
        5
102
RTVSPost2010Prop44ColorRGB
 90
      255
102
RTVSPost2010PropOp44
 70
     1
102
RTVSPost2010Prop45
280
     0
102
RTVSPost2010PropOp45
 70
     1
102
RTVSPost2010Prop46
 90
       50
102
RTVSPost2010PropOp46
 70
     1
102
RTVSPost2010Prop47
 90
       50
102
RTVSPost2010PropOp47
 70
     1
102
RTVSPost2010Prop48
 90
       50
102
RTVSPost2010PropOp48
 70
     1
102
RTVSPost2010Prop49
280
     0
102
RTVSPost2010PropOp49
 70
     1
102
RTVSPost2010Prop50
 90
       50
102
RTVSPost2010PropOp50
 70
     1
102
RTVSPost2010Prop51ColorIndex
 90
      256
102
RTVSPost2010Prop51ColorRGB
 90
-16777216
102
RTVSPost2010PropOp51
 70
     0
102
RTVSPost2010Prop52
140
1.0
102
RTVSPost2010PropOp52
 70
     0
102
RTVSPost2010Prop53
 90
        2
102
RTVSPost2010PropOp53
 70
     1
102
RTVSPost2010Prop54
  1
strokes_ogs.tif
102
RTVSPost2010PropOp54
 70
     1
102
RTVSPost2010Prop55
280
     0
102
RTVSPost2010PropOp55
 70
     1
102
RTVSPost2010Prop56
140
1.0
102
RTVSPost2010PropOp56
 70
     1
102
RTVSPost2010Prop57
140
1.0
102
RTVSPost2010PropOp57
 70
     1
102
RTVSPropertyOp0
 70
     1
102
RTVSPropertyOp1
 70
     1
102
RTVSPropertyOp2
 70
     1
102
RTVSPropertyOp3
 70
     1
102
RTVSPropertyOp4
 70
     1
102
RTVSPropertyOp5
 70
     1
102
RTVSPropertyOp6
 70
     1
102
RTVSPropertyOp7
 70
     1
102
RTVSPropertyOp8
 70
     1
102
RTVSPropertyOp9
 70
     1
102
RTVSPropertyOp10
 70
     1
102
RTVSPropertyOp11
 70
     1
102
RTVSPropertyOp12
 70
     1
102
RTVSPropertyOp13
 70
     1
102
RTVSPropertyOp14
 70
     1
102
RTVSPropertyOp15
 70
     1
102
RTVSPropertyOp16
 70
     1
102
RTVSPropertyOp17
 70
     1
102
RTVSPropertyOp18
 70
     1
102
RTVSPropertyOp19
 70
     1
102
RTVSPropertyOp20
 70
     1
102
RTVSPropertyOp21
 70
     1
102
RTVSPropertyOp22
 70
     1
102
RTVSPropertyOp23
 70
     1
102
RTVSPropertyOp24
 70
     1
102
RTVSPropertyOp25
 70
     1
102
RTVSPropertyOp26
 70
     1
102
RTVSPropertyOp27
 70
     1
102
RTVSPropertyOp28
 70
     1
102
RTVSPropertyOp29
 70
     1
102
RTVSPropertyOp30
 70
     1
102
RTVSPropertyOp31
 70
     1
102
RTVSPropertyOp32
 70
     1
102
RTVSPropertyOp33
 70
     1
102
RTVSPropertyOp34
 70
     1
102
RTVSPropertyOp35
 70
     1
102
RTVSPropertyOp36
 70
     1
102
RTVSPropertyOp37
 70
     1
102
RTVSPropertyOp38
 70
     1
102
RTVSPropertyOp39
 70
     1
102
RTVSPropertyOp40
 70
     1
102
RTVSPropertyOp41
 70
     1
102
RTVSPropertyOp42
 70
     1
102
RTVSPropertyOp43
 70
     1
102
RTVSPropertyOp44
 70
     1
102
RTVSPropertyOp45
 70
     1
102
RTVSPropertyOp46
 70
     1
102
RTVSPropertyOp47
 70
     1
102
RTVSPropertyOp48
 70
     1
102
RTVSPropertyOp49
 70
     1
102
RTVSPropertyOp50
 70
     1
102
RTVSPropertyOp51
 70
     0
102
RTVSPropertyOp52
 70
     0
102
RTVSPropertyOp53
 70
     1
102
RTVSPropertyOp54
 70
     1
102
RTVSPropertyOp55
 70
     1
102
RTVSPropertyOp56
 70
     1
102
RTVSPropertyOp57
 70
     1
102
RTVSPropertyOp58
 70
     1
102
RTVSPropertyOp59
 70
     1
102
RTVSPropertyOp60
 70
     1
102
RTVSPropertyOp61
 70
     1
102
RTVSPropertyOp62
 70
     1
  0
XRECORD
  5
35E
102
{ACAD_REACTORS
330
35D
102
}
330
35D
100
AcDbXrecord
280
     1
102
RTVSPost2010Prop28
280
     0
102
RTVSPost2010PropOp28
 70
     1
102
RTVSPost2010Prop29
280
     1
102
RTVSPost2010PropOp29
 70
     1
102
RTVSPost2010Prop30
280
     1
102
RTVSPost2010PropOp30
 70
     1
102
RTVSPost2010Prop31
280
     0
102
RTVSPost2010PropOp31
 70
     1
102
RTVSPost2010Prop32
280
     0
102
RTVSPost2010PropOp32
 70
     1
102
RTVSPost2010Prop33
280
     0
102
RTVSPost2010PropOp33
 70
     1
102
RTVSPost2010Prop34
280
     0
102
RTVSPost2010PropOp34
 70
     1
102
RTVSPost2010Prop35
280
     0
102
RTVSPost2010PropOp35
 70
     1
102
RTVSPost2010Prop36
280
     0
102
RTVSPost2010PropOp36
 70
     1
102
RTVSPost2010Prop37
 90
       50
102
RTVSPost2010PropOp37
 70
     0
102
RTVSPost2010Prop38
140
0.0
102
RTVSPost2010PropOp38
 70
     0
102
RTVSPost2010Prop39
140
1.0
102
RTVSPost2010PropOp39
 70
     0
102
RTVSPost2010Prop40
 90
        0
102
RTVSPost2010PropOp40
 70
     0
102
RTVSPost2010Prop41ColorIndex
 90
       18
102
RTVSPost2010Prop41ColorRGB
 90
        0
102
RTVSPost2010PropOp41
 70
     0
102
RTVSPost2010Prop42
 90
       50
102
RTVSPost2010PropOp42
 70
     0
102
RTVSPost2010Prop43
 90
        3
102
RTVSPost2010PropOp43
 70
     0
102
RTVSPost2010Prop44ColorIndex
 90
        5
102
RTVSPost2010Prop44ColorRGB
 90
      255
102
RTVSPost2010PropOp44
 70
     0
102
RTVSPost2010Prop45
280
     0
102
RTVSPost2010PropOp45
 70
     1
102
RTVSPost2010Prop46
 90
       50
102
RTVSPost2010PropOp46
 70
     0
102
RTVSPost2010Prop47
 90
       50
102
RTVSPost2010PropOp47
 70
     0
102
RTVSPost2010Prop48
 90
       50
102
RTVSPost2010PropOp48
 70
     0
102
RTVSPost2010Prop49
280
     0
102
RTVSPost2010PropOp49
 70
     1
102
RTVSPost2010Prop50
 90
       50
102
RTVSPost2010PropOp50
 70
     0
102
RTVSPost2010Prop51ColorIndex
 90
      256
102
RTVSPost2010Prop51ColorRGB
 90
-16777216
102
RTVSPost2010PropOp51
 70
     0
102
RTVSPost2010Prop52
140
1.0
102
RTVSPost2010PropOp52
 70
     0
102
RTVSPost2010Prop53
 90
        2
102
RTVSPost2010PropOp53
 70
     0
102
RTVSPost2010Prop54
  1
strokes_ogs.tif
102
RTVSPost2010PropOp54
 70
     0
102
RTVSPost2010Prop55
280
     0
102
RTVSPost2010PropOp55
 70
     1
102
RTVSPost2010Prop56
140
1.0
102
RTVSPost2010PropOp56
 70
     0
102
RTVSPost2010Prop57
140
1.0
102
RTVSPost2010PropOp57
 70
     0
102
RTVSPropertyOp0
 70
     0
102
RTVSPropertyOp1
 70
     0
102
RTVSPropertyOp2
 70
     0
102
RTVSPropertyOp3
 70
     0
102
RTVSPropertyOp4
 70
     0
102
RTVSPropertyOp5
 70
     0
102
RTVSPropertyOp6
 70
     0
102
RTVSPropertyOp7
 70
     0
102
RTVSPropertyOp8
 70
     0
102
RTVSPropertyOp9
 70
     0
102
RTVSPropertyOp10
 70
     0
102
RTVSPropertyOp11
 70
     0
102
RTVSPropertyOp12
 70
     0
102
RTVSPropertyOp13
 70
     0
102
RTVSPropertyOp14
 70
     2
102
RTVSPropertyOp15
 70
     0
102
RTVSPropertyOp16
 70
     0
102
RTVSPropertyOp17
 70
     0
102
RTVSPropertyOp18
 70
     0
102
RTVSPropertyOp19
 70
     0
102
RTVSPropertyOp20
 70
     0
102
RTVSPropertyOp21
 70
     0
102
RTVSPropertyOp22
 70
     0
102
RTVSPropertyOp23
 70
     0
102
RTVSPropertyOp24
 70
     0
102
RTVSPropertyOp25
 70
     0
102
RTVSPropertyOp26
 70
     0
102
RTVSPropertyOp27
 70
     0
102
RTVSPropertyOp28
 70
     1
102
RTVSPropertyOp29
 70
     1
102
RTVSPropertyOp30
 70
     1
102
RTVSPropertyOp31
 70
     1
102
RTVSPropertyOp32
 70
     1
102
RTVSPropertyOp33
 70
     1
102
RTVSPropertyOp34
 70
     1
102
RTVSPropertyOp35
 70
     1
102
RTVSPropertyOp36
 70
     1
102
RTVSPropertyOp37
 70
     0
102
RTVSPropertyOp38
 70
     0
102
RTVSPropertyOp39
 70
     0
102
RTVSPropertyOp40
 70
     0
102
RTVSPropertyOp41
 70
     0
102
RTVSPropertyOp42
 70
     0
102
RTVSPropertyOp43
 70
     0
102
RTVSPropertyOp44
 70
     0
102
RTVSPropertyOp45
 70
     1
102
RTVSPropertyOp46
 70
     0
102
RTVSPropertyOp47
 70
     0
102
RTVSPropertyOp48
 70
     0
102
RTVSPropertyOp49
 70
     1
102
RTVSPropertyOp50
 70
     0
102
RTVSPropertyOp51
 70
     0
102
RTVSPropertyOp52
 70
     0
102
RTVSPropertyOp53
 70
     0
102
RTVSPropertyOp54
 70
     0
102
RTVSPropertyOp55
 70
     1
102
RTVSPropertyOp56
 70
     0
102
RTVSPropertyOp57
 70
     0
102
RTVSPropertyOp58
 70
     0
102
RTVSPropertyOp59
 70
     0
102
RTVSPropertyOp60
 70
     0
102
RTVSPropertyOp61
 70
     0
102
RTVSPropertyOp62
 70
     0
  0
XRECORD
  5
34E
102
{ACAD_REACTORS
330
34D
102
}
330
34D
100
AcDbXrecord
280
     1
102
RTVSPost2010Prop28
280
     0
102
RTVSPost2010PropOp28
 70
     1
102
RTVSPost2010Prop29
280
     1
102
RTVSPost2010PropOp29
 70
     1
102
RTVSPost2010Prop30
280
     1
102
RTVSPost2010PropOp30
 70
     1
102
RTVSPost2010Prop31
280
     0
102
RTVSPost2010PropOp31
 70
     1
102
RTVSPost2010Prop32
280
     0
102
RTVSPost2010PropOp32
 70
     1
102
RTVSPost2010Prop33
280
     0
102
RTVSPost2010PropOp33
 70
     1
102
RTVSPost2010Prop34
280
     0
102
RTVSPost2010PropOp34
 70
     1
102
RTVSPost2010Prop35
280
     0
102
RTVSPost2010PropOp35
 70
     1
102
RTVSPost2010Prop36
280
     0
102
RTVSPost2010PropOp36
 70
     1
102
RTVSPost2010Prop37
 90
       50
102
RTVSPost2010PropOp37
 70
     1
102
RTVSPost2010Prop38
140
0.0
102
RTVSPost2010PropOp38
 70
     1
102
RTVSPost2010Prop39
140
1.0
102
RTVSPost2010PropOp39
 70
     1
102
RTVSPost2010Prop40
 90
        0
102
RTVSPost2010PropOp40
 70
     1
102
RTVSPost2010Prop41ColorIndex
 90
       18
102
RTVSPost2010Prop41ColorRGB
 90
        0
102
RTVSPost2010PropOp41
 70
     1
102
RTVSPost2010Prop42
 90
       50
102
RTVSPost2010PropOp42
 70
     1
102
RTVSPost2010Prop43
 90
        3
102
RTVSPost2010PropOp43
 70
     1
102
RTVSPost2010Prop44ColorIndex
 90
        5
102
RTVSPost2010Prop44ColorRGB
 90
      255
102
RTVSPost2010PropOp44
 70
     1
102
RTVSPost2010Prop45
280
     0
102
RTVSPost2010PropOp45
 70
     1
102
RTVSPost2010Prop46
 90
       50
102
RTVSPost2010PropOp46
 70
     1
102
RTVSPost2010Prop47
 90
       50
102
RTVSPost2010PropOp47
 70
     1
102
RTVSPost2010Prop48
 90
       50
102
RTVSPost2010PropOp48
 70
     1
102
RTVSPost2010Prop49
280
     0
102
RTVSPost2010PropOp49
 70
     1
102
RTVSPost2010Prop50
 90
       50
102
RTVSPost2010PropOp50
 70
     1
102
RTVSPost2010Prop51ColorIndex
 90
      256
102
RTVSPost2010Prop51ColorRGB
 90
-16777216
102
RTVSPost2010PropOp51
 70
     0
102
RTVSPost2010Prop52
140
1.0
102
RTVSPost2010PropOp52
 70
     0
102
RTVSPost2010Prop53
 90
        2
102
RTVSPost2010PropOp53
 70
     1
102
RTVSPost2010Prop54
  1
strokes_ogs.tif
102
RTVSPost2010PropOp54
 70
     1
102
RTVSPost2010Prop55
280
     0
102
RTVSPost2010PropOp55
 70
     1
102
RTVSPost2010Prop56
140
1.0
102
RTVSPost2010PropOp56
 70
     1
102
RTVSPost2010Prop57
140
1.0
102
RTVSPost2010PropOp57
 70
     1
102
RTVSPropertyOp0
 70
     1
102
RTVSPropertyOp1
 70
     1
102
RTVSPropertyOp2
 70
     1
102
RTVSPropertyOp3
 70
     1
102
RTVSPropertyOp4
 70
     1
102
RTVSPropertyOp5
 70
     1
102
RTVSPropertyOp6
 70
     1
102
RTVSPropertyOp7
 70
     1
102
RTVSPropertyOp8
 70
     1
102
RTVSPropertyOp9
 70
     1
102
RTVSPropertyOp10
 70
     1
102
RTVSPropertyOp11
 70
     1
102
RTVSPropertyOp12
 70
     1
102
RTVSPropertyOp13
 70
     1
102
RTVSPropertyOp14
 70
     1
102
RTVSPropertyOp15
 70
     1
102
RTVSPropertyOp16
 70
     1
102
RTVSPropertyOp17
 70
     1
102
RTVSPropertyOp18
 70
     1
102
RTVSPropertyOp19
 70
     1
102
RTVSPropertyOp20
 70
     1
102
RTVSPropertyOp21
 70
     1
102
RTVSPropertyOp22
 70
     1
102
RTVSPropertyOp23
 70
     1
102
RTVSPropertyOp24
 70
     1
102
RTVSPropertyOp25
 70
     1
102
RTVSPropertyOp26
 70
     1
102
RTVSPropertyOp27
 70
     1
102
RTVSPropertyOp28
 70
     1
102
RTVSPropertyOp29
 70
     1
102
RTVSPropertyOp30
 70
     1
102
RTVSPropertyOp31
 70
     1
102
RTVSPropertyOp32
 70
     1
102
RTVSPropertyOp33
 70
     1
102
RTVSPropertyOp34
 70
     1
102
RTVSPropertyOp35
 70
     1
102
RTVSPropertyOp36
 70
     1
102
RTVSPropertyOp37
 70
     1
102
RTVSPropertyOp38
 70
     1
102
RTVSPropertyOp39
 70
     1
102
RTVSPropertyOp40
 70
     1
102
RTVSPropertyOp41
 70
     1
102
RTVSPropertyOp42
 70
     1
102
RTVSPropertyOp43
 70
     1
102
RTVSPropertyOp44
 70
     1
102
RTVSPropertyOp45
 70
     1
102
RTVSPropertyOp46
 70
     1
102
RTVSPropertyOp47
 70
     1
102
RTVSPropertyOp48
 70
     1
102
RTVSPropertyOp49
 70
     1
102
RTVSPropertyOp50
 70
     1
102
RTVSPropertyOp51
 70
     0
102
RTVSPropertyOp52
 70
     0
102
RTVSPropertyOp53
 70
     1
102
RTVSPropertyOp54
 70
     1
102
RTVSPropertyOp55
 70
     1
102
RTVSPropertyOp56
 70
     1
102
RTVSPropertyOp57
 70
     1
102
RTVSPropertyOp58
 70
     1
102
RTVSPropertyOp59
 70
     1
102
RTVSPropertyOp60
 70
     1
102
RTVSPropertyOp61
 70
     1
102
RTVSPropertyOp62
 70
     1
  0
XRECORD
  5
360
102
{ACAD_REACTORS
330
35F
102
}
330
35F
100
AcDbXrecord
280
     1
102
RTVSPost2010Prop28
280
     0
102
RTVSPost2010PropOp28
 70
     1
102
RTVSPost2010Prop29
280
     1
102
RTVSPost2010PropOp29
 70
     1
102
RTVSPost2010Prop30
280
     1
102
RTVSPost2010PropOp30
 70
     1
102
RTVSPost2010Prop31
280
     0
102
RTVSPost2010PropOp31
 70
     1
102
RTVSPost2010Prop32
280
     0
102
RTVSPost2010PropOp32
 70
     1
102
RTVSPost2010Prop33
280
     0
102
RTVSPost2010PropOp33
 70
     1
102
RTVSPost2010Prop34
280
     0
102
RTVSPost2010PropOp34
 70
     1
102
RTVSPost2010Prop35
280
     0
102
RTVSPost2010PropOp35
 70
     1
102
RTVSPost2010Prop36
280
     0
102
RTVSPost2010PropOp36
 70
     1
102
RTVSPost2010Prop37
 90
       50
102
RTVSPost2010PropOp37
 70
     0
102
RTVSPost2010Prop38
140
0.0
102
RTVSPost2010PropOp38
 70
     0
102
RTVSPost2010Prop39
140
1.0
102
RTVSPost2010PropOp39
 70
     0
102
RTVSPost2010Prop40
 90
        0
102
RTVSPost2010PropOp40
 70
     0
102
RTVSPost2010Prop41ColorIndex
 90
       18
102
RTVSPost2010Prop41ColorRGB
 90
        0
102
RTVSPost2010PropOp41
 70
     0
102
RTVSPost2010Prop42
 90
       50
102
RTVSPost2010PropOp42
 70
     0
102
RTVSPost2010Prop43
 90
        3
102
RTVSPost2010PropOp43
 70
     0
102
RTVSPost2010Prop44ColorIndex
 90
        5
102
RTVSPost2010Prop44ColorRGB
 90
      255
102
RTVSPost2010PropOp44
 70
     0
102
RTVSPost2010Prop45
280
     0
102
RTVSPost2010PropOp45
 70
     1
102
RTVSPost2010Prop46
 90
       50
102
RTVSPost2010PropOp46
 70
     0
102
RTVSPost2010Prop47
 90
       50
102
RTVSPost2010PropOp47
 70
     0
102
RTVSPost2010Prop48
 90
       50
102
RTVSPost2010PropOp48
 70
     0
102
RTVSPost2010Prop49
280
     0
102
RTVSPost2010PropOp49
 70
     1
102
RTVSPost2010Prop50
 90
       50
102
RTVSPost2010PropOp50
 70
     0
102
RTVSPost2010Prop51ColorIndex
 90
      256
102
RTVSPost2010Prop51ColorRGB
 90
-16777216
102
RTVSPost2010PropOp51
 70
     0
102
RTVSPost2010Prop52
140
1.0
102
RTVSPost2010PropOp52
 70
     0
102
RTVSPost2010Prop53
 90
        2
102
RTVSPost2010PropOp53
 70
     0
102
RTVSPost2010Prop54
  1
strokes_ogs.tif
102
RTVSPost2010PropOp54
 70
     0
102
RTVSPost2010Prop55
280
     0
102
RTVSPost2010PropOp55
 70
     1
102
RTVSPost2010Prop56
140
1.0
102
RTVSPost2010PropOp56
 70
     0
102
RTVSPost2010Prop57
140
1.0
102
RTVSPost2010PropOp57
 70
     0
102
RTVSPropertyOp0
 70
     0
102
RTVSPropertyOp1
 70
     0
102
RTVSPropertyOp2
 70
     0
102
RTVSPropertyOp3
 70
     0
102
RTVSPropertyOp4
 70
     0
102
RTVSPropertyOp5
 70
     0
102
RTVSPropertyOp6
 70
     0
102
RTVSPropertyOp7
 70
     0
102
RTVSPropertyOp8
 70
     0
102
RTVSPropertyOp9
 70
     0
102
RTVSPropertyOp10
 70
     0
102
RTVSPropertyOp11
 70
     0
102
RTVSPropertyOp12
 70
     0
102
RTVSPropertyOp13
 70
     0
102
RTVSPropertyOp14
 70
     2
102
RTVSPropertyOp15
 70
     0
102
RTVSPropertyOp16
 70
     0
102
RTVSPropertyOp17
 70
     0
102
RTVSPropertyOp18
 70
     0
102
RTVSPropertyOp19
 70
     0
102
RTVSPropertyOp20
 70
     0
102
RTVSPropertyOp21
 70
     0
102
RTVSPropertyOp22
 70
     0
102
RTVSPropertyOp23
 70
     0
102
RTVSPropertyOp24
 70
     0
102
RTVSPropertyOp25
 70
     0
102
RTVSPropertyOp26
 70
     0
102
RTVSPropertyOp27
 70
     0
102
RTVSPropertyOp28
 70
     1
102
RTVSPropertyOp29
 70
     1
102
RTVSPropertyOp30
 70
     1
102
RTVSPropertyOp31
 70
     1
102
RTVSPropertyOp32
 70
     1
102
RTVSPropertyOp33
 70
     1
102
RTVSPropertyOp34
 70
     1
102
RTVSPropertyOp35
 70
     1
102
RTVSPropertyOp36
 70
     1
102
RTVSPropertyOp37
 70
     0
102
RTVSPropertyOp38
 70
     0
102
RTVSPropertyOp39
 70
     0
102
RTVSPropertyOp40
 70
     0
102
RTVSPropertyOp41
 70
     0
102
RTVSPropertyOp42
 70
     0
102
RTVSPropertyOp43
 70
     0
102
RTVSPropertyOp44
 70
     0
102
RTVSPropertyOp45
 70
     1
102
RTVSPropertyOp46
 70
     0
102
RTVSPropertyOp47
 70
     0
102
RTVSPropertyOp48
 70
     0
102
RTVSPropertyOp49
 70
     1
102
RTVSPropertyOp50
 70
     0
102
RTVSPropertyOp51
 70
     0
102
RTVSPropertyOp52
 70
     0
102
RTVSPropertyOp53
 70
     0
102
RTVSPropertyOp54
 70
     0
102
RTVSPropertyOp55
 70
     1
102
RTVSPropertyOp56
 70
     0
102
RTVSPropertyOp57
 70
     0
102
RTVSPropertyOp58
 70
     0
102
RTVSPropertyOp59
 70
     0
102
RTVSPropertyOp60
 70
     0
102
RTVSPropertyOp61
 70
     0
102
RTVSPropertyOp62
 70
     0
  0
XRECORD
  5
346
102
{ACAD_REACTORS
330
345
102
}
330
345
100
AcDbXrecord
280
     1
102
RTVSPost2010Prop28
280
     0
102
RTVSPost2010PropOp28
 70
     1
102
RTVSPost2010Prop29
280
     1
102
RTVSPost2010PropOp29
 70
     1
102
RTVSPost2010Prop30
280
     1
102
RTVSPost2010PropOp30
 70
     1
102
RTVSPost2010Prop31
280
     0
102
RTVSPost2010PropOp31
 70
     1
102
RTVSPost2010Prop32
280
     0
102
RTVSPost2010PropOp32
 70
     1
102
RTVSPost2010Prop33
280
     0
102
RTVSPost2010PropOp33
 70
     1
102
RTVSPost2010Prop34
280
     0
102
RTVSPost2010PropOp34
 70
     1
102
RTVSPost2010Prop35
280
     0
102
RTVSPost2010PropOp35
 70
     1
102
RTVSPost2010Prop36
280
     0
102
RTVSPost2010PropOp36
 70
     1
102
RTVSPost2010Prop37
 90
       50
102
RTVSPost2010PropOp37
 70
     1
102
RTVSPost2010Prop38
140
0.0
102
RTVSPost2010PropOp38
 70
     1
102
RTVSPost2010Prop39
140
1.0
102
RTVSPost2010PropOp39
 70
     1
102
RTVSPost2010Prop40
 90
        0
102
RTVSPost2010PropOp40
 70
     1
102
RTVSPost2010Prop41ColorIndex
 90
       18
102
RTVSPost2010Prop41ColorRGB
 90
        0
102
RTVSPost2010PropOp41
 70
     1
102
RTVSPost2010Prop42
 90
       50
102
RTVSPost2010PropOp42
 70
     1
102
RTVSPost2010Prop43
 90
        3
102
RTVSPost2010PropOp43
 70
     1
102
RTVSPost2010Prop44ColorIndex
 90
        5
102
RTVSPost2010Prop44ColorRGB
 90
      255
102
RTVSPost2010PropOp44
 70
     1
102
RTVSPost2010Prop45
280
     0
102
RTVSPost2010PropOp45
 70
     1
102
RTVSPost2010Prop46
 90
       50
102
RTVSPost2010PropOp46
 70
     1
102
RTVSPost2010Prop47
 90
       50
102
RTVSPost2010PropOp47
 70
     1
102
RTVSPost2010Prop48
 90
       50
102
RTVSPost2010PropOp48
 70
     1
102
RTVSPost2010Prop49
280
     0
102
RTVSPost2010PropOp49
 70
     1
102
RTVSPost2010Prop50
 90
       50
102
RTVSPost2010PropOp50
 70
     1
102
RTVSPost2010Prop51ColorIndex
 90
      256
102
RTVSPost2010Prop51ColorRGB
 90
-16777216
102
RTVSPost2010PropOp51
 70
     0
102
RTVSPost2010Prop52
140
1.0
102
RTVSPost2010PropOp52
 70
     0
102
RTVSPost2010Prop53
 90
        2
102
RTVSPost2010PropOp53
 70
     1
102
RTVSPost2010Prop54
  1
strokes_ogs.tif
102
RTVSPost2010PropOp54
 70
     1
102
RTVSPost2010Prop55
280
     0
102
RTVSPost2010PropOp55
 70
     1
102
RTVSPost2010Prop56
140
1.0
102
RTVSPost2010PropOp56
 70
     1
102
RTVSPost2010Prop57
140
1.0
102
RTVSPost2010PropOp57
 70
     1
102
RTVSPropertyOp0
 70
     1
102
RTVSPropertyOp1
 70
     1
102
RTVSPropertyOp2
 70
     1
102
RTVSPropertyOp3
 70
     1
102
RTVSPropertyOp4
 70
     1
102
RTVSPropertyOp5
 70
     1
102
RTVSPropertyOp6
 70
     1
102
RTVSPropertyOp7
 70
     1
102
RTVSPropertyOp8
 70
     1
102
RTVSPropertyOp9
 70
     1
102
RTVSPropertyOp10
 70
     1
102
RTVSPropertyOp11
 70
     1
102
RTVSPropertyOp12
 70
     1
102
RTVSPropertyOp13
 70
     1
102
RTVSPropertyOp14
 70
     1
102
RTVSPropertyOp15
 70
     1
102
RTVSPropertyOp16
 70
     1
102
RTVSPropertyOp17
 70
     1
102
RTVSPropertyOp18
 70
     1
102
RTVSPropertyOp19
 70
     1
102
RTVSPropertyOp20
 70
     1
102
RTVSPropertyOp21
 70
     1
102
RTVSPropertyOp22
 70
     1
102
RTVSPropertyOp23
 70
     1
102
RTVSPropertyOp24
 70
     1
102
RTVSPropertyOp25
 70
     1
102
RTVSPropertyOp26
 70
     1
102
RTVSPropertyOp27
 70
     1
102
RTVSPropertyOp28
 70
     1
102
RTVSPropertyOp29
 70
     1
102
RTVSPropertyOp30
 70
     1
102
RTVSPropertyOp31
 70
     1
102
RTVSPropertyOp32
 70
     1
102
RTVSPropertyOp33
 70
     1
102
RTVSPropertyOp34
 70
     1
102
RTVSPropertyOp35
 70
     1
102
RTVSPropertyOp36
 70
     1
102
RTVSPropertyOp37
 70
     1
102
RTVSPropertyOp38
 70
     1
102
RTVSPropertyOp39
 70
     1
102
RTVSPropertyOp40
 70
     1
102
RTVSPropertyOp41
 70
     1
102
RTVSPropertyOp42
 70
     1
102
RTVSPropertyOp43
 70
     1
102
RTVSPropertyOp44
 70
     1
102
RTVSPropertyOp45
 70
     1
102
RTVSPropertyOp46
 70
     1
102
RTVSPropertyOp47
 70
     1
102
RTVSPropertyOp48
 70
     1
102
RTVSPropertyOp49
 70
     1
102
RTVSPropertyOp50
 70
     1
102
RTVSPropertyOp51
 70
     0
102
RTVSPropertyOp52
 70
     0
102
RTVSPropertyOp53
 70
     1
102
RTVSPropertyOp54
 70
     1
102
RTVSPropertyOp55
 70
     1
102
RTVSPropertyOp56
 70
     1
102
RTVSPropertyOp57
 70
     1
102
RTVSPropertyOp58
 70
     1
102
RTVSPropertyOp59
 70
     1
102
RTVSPropertyOp60
 70
     1
102
RTVSPropertyOp61
 70
     1
102
RTVSPropertyOp62
 70
     1
  0
XRECORD
  5
35C
102
{ACAD_REACTORS
330
35B
102
}
330
35B
100
AcDbXrecord
280
     1
102
RTVSPost2010Prop28
280
     0
102
RTVSPost2010PropOp28
 70
     1
102
RTVSPost2010Prop29
280
     1
102
RTVSPost2010PropOp29
 70
     1
102
RTVSPost2010Prop30
280
     1
102
RTVSPost2010PropOp30
 70
     1
102
RTVSPost2010Prop31
280
     0
102
RTVSPost2010PropOp31
 70
     1
102
RTVSPost2010Prop32
280
     0
102
RTVSPost2010PropOp32
 70
     1
102
RTVSPost2010Prop33
280
     0
102
RTVSPost2010PropOp33
 70
     1
102
RTVSPost2010Prop34
280
     0
102
RTVSPost2010PropOp34
 70
     1
102
RTVSPost2010Prop35
280
     0
102
RTVSPost2010PropOp35
 70
     1
102
RTVSPost2010Prop36
280
     0
102
RTVSPost2010PropOp36
 70
     1
102
RTVSPost2010Prop37
 90
       50
102
RTVSPost2010PropOp37
 70
     1
102
RTVSPost2010Prop38
140
0.0
102
RTVSPost2010PropOp38
 70
     1
102
RTVSPost2010Prop39
140
1.0
102
RTVSPost2010PropOp39
 70
     1
102
RTVSPost2010Prop40
 90
        0
102
RTVSPost2010PropOp40
 70
     1
102
RTVSPost2010Prop41ColorIndex
 90
       18
102
RTVSPost2010Prop41ColorRGB
 90
        0
102
RTVSPost2010PropOp41
 70
     1
102
RTVSPost2010Prop42
 90
       50
102
RTVSPost2010PropOp42
 70
     1
102
RTVSPost2010Prop43
 90
        3
102
RTVSPost2010PropOp43
 70
     1
102
RTVSPost2010Prop44ColorIndex
 90
        5
102
RTVSPost2010Prop44ColorRGB
 90
      255
102
RTVSPost2010PropOp44
 70
     1
102
RTVSPost2010Prop45
280
     0
102
RTVSPost2010PropOp45
 70
     1
102
RTVSPost2010Prop46
 90
       50
102
RTVSPost2010PropOp46
 70
     1
102
RTVSPost2010Prop47
 90
       50
102
RTVSPost2010PropOp47
 70
     1
102
RTVSPost2010Prop48
 90
       50
102
RTVSPost2010PropOp48
 70
     1
102
RTVSPost2010Prop49
280
     0
102
RTVSPost2010PropOp49
 70
     1
102
RTVSPost2010Prop50
 90
       50
102
RTVSPost2010PropOp50
 70
     1
102
RTVSPost2010Prop51ColorIndex
 90
      256
102
RTVSPost2010Prop51ColorRGB
 90
-16777216
102
RTVSPost2010PropOp51
 70
     0
102
RTVSPost2010Prop52
140
1.0
102
RTVSPost2010PropOp52
 70
     0
102
RTVSPost2010Prop53
 90
        2
102
RTVSPost2010PropOp53
 70
     1
102
RTVSPost2010Prop54
  1
strokes_ogs.tif
102
RTVSPost2010PropOp54
 70
     1
102
RTVSPost2010Prop55
280
     0
102
RTVSPost2010PropOp55
 70
     1
102
RTVSPost2010Prop56
140
1.0
102
RTVSPost2010PropOp56
 70
     1
102
RTVSPost2010Prop57
140
1.0
102
RTVSPost2010PropOp57
 70
     1
102
RTVSPropertyOp0
 70
     1
102
RTVSPropertyOp1
 70
     1
102
RTVSPropertyOp2
 70
     1
102
RTVSPropertyOp3
 70
     1
102
RTVSPropertyOp4
 70
     1
102
RTVSPropertyOp5
 70
     1
102
RTVSPropertyOp6
 70
     1
102
RTVSPropertyOp7
 70
     1
102
RTVSPropertyOp8
 70
     1
102
RTVSPropertyOp9
 70
     1
102
RTVSPropertyOp10
 70
     1
102
RTVSPropertyOp11
 70
     1
102
RTVSPropertyOp12
 70
     1
102
RTVSPropertyOp13
 70
     1
102
RTVSPropertyOp14
 70
     1
102
RTVSPropertyOp15
 70
     1
102
RTVSPropertyOp16
 70
     1
102
RTVSPropertyOp17
 70
     1
102
RTVSPropertyOp18
 70
     1
102
RTVSPropertyOp19
 70
     1
102
RTVSPropertyOp20
 70
     1
102
RTVSPropertyOp21
 70
     1
102
RTVSPropertyOp22
 70
     1
102
RTVSPropertyOp23
 70
     1
102
RTVSPropertyOp24
 70
     1
102
RTVSPropertyOp25
 70
     1
102
RTVSPropertyOp26
 70
     1
102
RTVSPropertyOp27
 70
     1
102
RTVSPropertyOp28
 70
     1
102
RTVSPropertyOp29
 70
     1
102
RTVSPropertyOp30
 70
     1
102
RTVSPropertyOp31
 70
     1
102
RTVSPropertyOp32
 70
     1
102
RTVSPropertyOp33
 70
     1
102
RTVSPropertyOp34
 70
     1
102
RTVSPropertyOp35
 70
     1
102
RTVSPropertyOp36
 70
     1
102
RTVSPropertyOp37
 70
     1
102
RTVSPropertyOp38
 70
     1
102
RTVSPropertyOp39
 70
     1
102
RTVSPropertyOp40
 70
     1
102
RTVSPropertyOp41
 70
     1
102
RTVSPropertyOp42
 70
     1
102
RTVSPropertyOp43
 70
     1
102
RTVSPropertyOp44
 70
     1
102
RTVSPropertyOp45
 70
     1
102
RTVSPropertyOp46
 70
     1
102
RTVSPropertyOp47
 70
     1
102
RTVSPropertyOp48
 70
     1
102
RTVSPropertyOp49
 70
     1
102
RTVSPropertyOp50
 70
     1
102
RTVSPropertyOp51
 70
     0
102
RTVSPropertyOp52
 70
     0
102
RTVSPropertyOp53
 70
     1
102
RTVSPropertyOp54
 70
     1
102
RTVSPropertyOp55
 70
     1
102
RTVSPropertyOp56
 70
     1
102
RTVSPropertyOp57
 70
     1
102
RTVSPropertyOp58
 70
     1
102
RTVSPropertyOp59
 70
     1
102
RTVSPropertyOp60
 70
     1
102
RTVSPropertyOp61
 70
     1
102
RTVSPropertyOp62
 70
     1
  0
XRECORD
  5
35A
102
{ACAD_REACTORS
330
359
102
}
330
359
100
AcDbXrecord
280
     1
102
RTVSPost2010Prop28
280
     0
102
RTVSPost2010PropOp28
 70
     1
102
RTVSPost2010Prop29
280
     1
102
RTVSPost2010PropOp29
 70
     1
102
RTVSPost2010Prop30
280
     1
102
RTVSPost2010PropOp30
 70
     1
102
RTVSPost2010Prop31
280
     0
102
RTVSPost2010PropOp31
 70
     1
102
RTVSPost2010Prop32
280
     0
102
RTVSPost2010PropOp32
 70
     1
102
RTVSPost2010Prop33
280
     0
102
RTVSPost2010PropOp33
 70
     1
102
RTVSPost2010Prop34
280
     0
102
RTVSPost2010PropOp34
 70
     1
102
RTVSPost2010Prop35
280
     0
102
RTVSPost2010PropOp35
 70
     1
102
RTVSPost2010Prop36
280
     0
102
RTVSPost2010PropOp36
 70
     1
102
RTVSPost2010Prop37
 90
       50
102
RTVSPost2010PropOp37
 70
     1
102
RTVSPost2010Prop38
140
0.0
102
RTVSPost2010PropOp38
 70
     1
102
RTVSPost2010Prop39
140
1.0
102
RTVSPost2010PropOp39
 70
     1
102
RTVSPost2010Prop40
 90
        0
102
RTVSPost2010PropOp40
 70
     1
102
RTVSPost2010Prop41ColorIndex
 90
       18
102
RTVSPost2010Prop41ColorRGB
 90
        0
102
RTVSPost2010PropOp41
 70
     1
102
RTVSPost2010Prop42
 90
       50
102
RTVSPost2010PropOp42
 70
     1
102
RTVSPost2010Prop43
 90
        3
102
RTVSPost2010PropOp43
 70
     1
102
RTVSPost2010Prop44ColorIndex
 90
        5
102
RTVSPost2010Prop44ColorRGB
 90
      255
102
RTVSPost2010PropOp44
 70
     1
102
RTVSPost2010Prop45
280
     0
102
RTVSPost2010PropOp45
 70
     1
102
RTVSPost2010Prop46
 90
       50
102
RTVSPost2010PropOp46
 70
     1
102
RTVSPost2010Prop47
 90
       50
102
RTVSPost2010PropOp47
 70
     1
102
RTVSPost2010Prop48
 90
       50
102
RTVSPost2010PropOp48
 70
     1
102
RTVSPost2010Prop49
280
     0
102
RTVSPost2010PropOp49
 70
     1
102
RTVSPost2010Prop50
 90
       50
102
RTVSPost2010PropOp50
 70
     1
102
RTVSPost2010Prop51ColorIndex
 90
      256
102
RTVSPost2010Prop51ColorRGB
 90
-16777216
102
RTVSPost2010PropOp51
 70
     0
102
RTVSPost2010Prop52
140
1.0
102
RTVSPost2010PropOp52
 70
     0
102
RTVSPost2010Prop53
 90
        2
102
RTVSPost2010PropOp53
 70
     1
102
RTVSPost2010Prop54
  1
strokes_ogs.tif
102
RTVSPost2010PropOp54
 70
     1
102
RTVSPost2010Prop55
280
     0
102
RTVSPost2010PropOp55
 70
     1
102
RTVSPost2010Prop56
140
1.0
102
RTVSPost2010PropOp56
 70
     1
102
RTVSPost2010Prop57
140
1.0
102
RTVSPost2010PropOp57
 70
     1
102
RTVSPropertyOp0
 70
     1
102
RTVSPropertyOp1
 70
     1
102
RTVSPropertyOp2
 70
     1
102
RTVSPropertyOp3
 70
     1
102
RTVSPropertyOp4
 70
     1
102
RTVSPropertyOp5
 70
     1
102
RTVSPropertyOp6
 70
     1
102
RTVSPropertyOp7
 70
     1
102
RTVSPropertyOp8
 70
     1
102
RTVSPropertyOp9
 70
     1
102
RTVSPropertyOp10
 70
     1
102
RTVSPropertyOp11
 70
     1
102
RTVSPropertyOp12
 70
     1
102
RTVSPropertyOp13
 70
     1
102
RTVSPropertyOp14
 70
     1
102
RTVSPropertyOp15
 70
     1
102
RTVSPropertyOp16
 70
     1
102
RTVSPropertyOp17
 70
     1
102
RTVSPropertyOp18
 70
     1
102
RTVSPropertyOp19
 70
     1
102
RTVSPropertyOp20
 70
     1
102
RTVSPropertyOp21
 70
     1
102
RTVSPropertyOp22
 70
     1
102
RTVSPropertyOp23
 70
     1
102
RTVSPropertyOp24
 70
     1
102
RTVSPropertyOp25
 70
     1
102
RTVSPropertyOp26
 70
     1
102
RTVSPropertyOp27
 70
     1
102
RTVSPropertyOp28
 70
     1
102
RTVSPropertyOp29
 70
     1
102
RTVSPropertyOp30
 70
     1
102
RTVSPropertyOp31
 70
     1
102
RTVSPropertyOp32
 70
     1
102
RTVSPropertyOp33
 70
     1
102
RTVSPropertyOp34
 70
     1
102
RTVSPropertyOp35
 70
     1
102
RTVSPropertyOp36
 70
     1
102
RTVSPropertyOp37
 70
     1
102
RTVSPropertyOp38
 70
     1
102
RTVSPropertyOp39
 70
     1
102
RTVSPropertyOp40
 70
     1
102
RTVSPropertyOp41
 70
     1
102
RTVSPropertyOp42
 70
     1
102
RTVSPropertyOp43
 70
     1
102
RTVSPropertyOp44
 70
     1
102
RTVSPropertyOp45
 70
     1
102
RTVSPropertyOp46
 70
     1
102
RTVSPropertyOp47
 70
     1
102
RTVSPropertyOp48
 70
     1
102
RTVSPropertyOp49
 70
     1
102
RTVSPropertyOp50
 70
     1
102
RTVSPropertyOp51
 70
     0
102
RTVSPropertyOp52
 70
     0
102
RTVSPropertyOp53
 70
     1
102
RTVSPropertyOp54
 70
     1
102
RTVSPropertyOp55
 70
     1
102
RTVSPropertyOp56
 70
     1
102
RTVSPropertyOp57
 70
     1
102
RTVSPropertyOp58
 70
     1
102
RTVSPropertyOp59
 70
     1
102
RTVSPropertyOp60
 70
     1
102
RTVSPropertyOp61
 70
     1
102
RTVSPropertyOp62
 70
     1
  0
XRECORD
  5
354
102
{ACAD_REACTORS
330
353
102
}
330
353
100
AcDbXrecord
280
     1
102
RTVSPost2010Prop28
280
     0
102
RTVSPost2010PropOp28
 70
     1
102
RTVSPost2010Prop29
280
     1
102
RTVSPost2010PropOp29
 70
     1
102
RTVSPost2010Prop30
280
     1
102
RTVSPost2010PropOp30
 70
     1
102
RTVSPost2010Prop31
280
     0
102
RTVSPost2010PropOp31
 70
     1
102
RTVSPost2010Prop32
280
     0
102
RTVSPost2010PropOp32
 70
     1
102
RTVSPost2010Prop33
280
     0
102
RTVSPost2010PropOp33
 70
     1
102
RTVSPost2010Prop34
280
     0
102
RTVSPost2010PropOp34
 70
     1
102
RTVSPost2010Prop35
280
     0
102
RTVSPost2010PropOp35
 70
     1
102
RTVSPost2010Prop36
280
     0
102
RTVSPost2010PropOp36
 70
     1
102
RTVSPost2010Prop37
 90
       50
102
RTVSPost2010PropOp37
 70
     1
102
RTVSPost2010Prop38
140
0.0
102
RTVSPost2010PropOp38
 70
     1
102
RTVSPost2010Prop39
140
1.0
102
RTVSPost2010PropOp39
 70
     1
102
RTVSPost2010Prop40
 90
        0
102
RTVSPost2010PropOp40
 70
     1
102
RTVSPost2010Prop41ColorIndex
 90
       18
102
RTVSPost2010Prop41ColorRGB
 90
        0
102
RTVSPost2010PropOp41
 70
     1
102
RTVSPost2010Prop42
 90
       50
102
RTVSPost2010PropOp42
 70
     1
102
RTVSPost2010Prop43
 90
        3
102
RTVSPost2010PropOp43
 70
     1
102
RTVSPost2010Prop44ColorIndex
 90
        5
102
RTVSPost2010Prop44ColorRGB
 90
      255
102
RTVSPost2010PropOp44
 70
     1
102
RTVSPost2010Prop45
280
     0
102
RTVSPost2010PropOp45
 70
     1
102
RTVSPost2010Prop46
 90
       50
102
RTVSPost2010PropOp46
 70
     1
102
RTVSPost2010Prop47
 90
       50
102
RTVSPost2010PropOp47
 70
     1
102
RTVSPost2010Prop48
 90
       50
102
RTVSPost2010PropOp48
 70
     1
102
RTVSPost2010Prop49
280
     0
102
RTVSPost2010PropOp49
 70
     1
102
RTVSPost2010Prop50
 90
       50
102
RTVSPost2010PropOp50
 70
     1
102
RTVSPost2010Prop51ColorIndex
 90
      256
102
RTVSPost2010Prop51ColorRGB
 90
-16777216
102
RTVSPost2010PropOp51
 70
     0
102
RTVSPost2010Prop52
140
1.0
102
RTVSPost2010PropOp52
 70
     0
102
RTVSPost2010Prop53
 90
        2
102
RTVSPost2010PropOp53
 70
     1
102
RTVSPost2010Prop54
  1
strokes_ogs.tif
102
RTVSPost2010PropOp54
 70
     1
102
RTVSPost2010Prop55
280
     0
102
RTVSPost2010PropOp55
 70
     1
102
RTVSPost2010Prop56
140
1.0
102
RTVSPost2010PropOp56
 70
     1
102
RTVSPost2010Prop57
140
1.0
102
RTVSPost2010PropOp57
 70
     1
102
RTVSPropertyOp0
 70
     1
102
RTVSPropertyOp1
 70
     1
102
RTVSPropertyOp2
 70
     1
102
RTVSPropertyOp3
 70
     1
102
RTVSPropertyOp4
 70
     1
102
RTVSPropertyOp5
 70
     1
102
RTVSPropertyOp6
 70
     1
102
RTVSPropertyOp7
 70
     1
102
RTVSPropertyOp8
 70
     1
102
RTVSPropertyOp9
 70
     1
102
RTVSPropertyOp10
 70
     1
102
RTVSPropertyOp11
 70
     1
102
RTVSPropertyOp12
 70
     1
102
RTVSPropertyOp13
 70
     1
102
RTVSPropertyOp14
 70
     1
102
RTVSPropertyOp15
 70
     1
102
RTVSPropertyOp16
 70
     1
102
RTVSPropertyOp17
 70
     1
102
RTVSPropertyOp18
 70
     1
102
RTVSPropertyOp19
 70
     1
102
RTVSPropertyOp20
 70
     1
102
RTVSPropertyOp21
 70
     1
102
RTVSPropertyOp22
 70
     1
102
RTVSPropertyOp23
 70
     1
102
RTVSPropertyOp24
 70
     1
102
RTVSPropertyOp25
 70
     1
102
RTVSPropertyOp26
 70
     1
102
RTVSPropertyOp27
 70
     1
102
RTVSPropertyOp28
 70
     1
102
RTVSPropertyOp29
 70
     1
102
RTVSPropertyOp30
 70
     1
102
RTVSPropertyOp31
 70
     1
102
RTVSPropertyOp32
 70
     1
102
RTVSPropertyOp33
 70
     1
102
RTVSPropertyOp34
 70
     1
102
RTVSPropertyOp35
 70
     1
102
RTVSPropertyOp36
 70
     1
102
RTVSPropertyOp37
 70
     1
102
RTVSPropertyOp38
 70
     1
102
RTVSPropertyOp39
 70
     1
102
RTVSPropertyOp40
 70
     1
102
RTVSPropertyOp41
 70
     1
102
RTVSPropertyOp42
 70
     1
102
RTVSPropertyOp43
 70
     1
102
RTVSPropertyOp44
 70
     1
102
RTVSPropertyOp45
 70
     1
102
RTVSPropertyOp46
 70
     1
102
RTVSPropertyOp47
 70
     1
102
RTVSPropertyOp48
 70
     1
102
RTVSPropertyOp49
 70
     1
102
RTVSPropertyOp50
 70
     1
102
RTVSPropertyOp51
 70
     0
102
RTVSPropertyOp52
 70
     0
102
RTVSPropertyOp53
 70
     1
102
RTVSPropertyOp54
 70
     1
102
RTVSPropertyOp55
 70
     1
102
RTVSPropertyOp56
 70
     1
102
RTVSPropertyOp57
 70
     1
102
RTVSPropertyOp58
 70
     1
102
RTVSPropertyOp59
 70
     1
102
RTVSPropertyOp60
 70
     1
102
RTVSPropertyOp61
 70
     1
102
RTVSPropertyOp62
 70
     1
  0
XRECORD
  5
356
102
{ACAD_REACTORS
330
355
102
}
330
355
100
AcDbXrecord
280
     1
102
RTVSPost2010Prop28
280
     0
102
RTVSPost2010PropOp28
 70
     1
102
RTVSPost2010Prop29
280
     1
102
RTVSPost2010PropOp29
 70
     1
102
RTVSPost2010Prop30
280
     1
102
RTVSPost2010PropOp30
 70
     1
102
RTVSPost2010Prop31
280
     0
102
RTVSPost2010PropOp31
 70
     1
102
RTVSPost2010Prop32
280
     0
102
RTVSPost2010PropOp32
 70
     1
102
RTVSPost2010Prop33
280
     0
102
RTVSPost2010PropOp33
 70
     1
102
RTVSPost2010Prop34
280
     0
102
RTVSPost2010PropOp34
 70
     1
102
RTVSPost2010Prop35
280
     0
102
RTVSPost2010PropOp35
 70
     1
102
RTVSPost2010Prop36
280
     0
102
RTVSPost2010PropOp36
 70
     1
102
RTVSPost2010Prop37
 90
       50
102
RTVSPost2010PropOp37
 70
     1
102
RTVSPost2010Prop38
140
0.0
102
RTVSPost2010PropOp38
 70
     1
102
RTVSPost2010Prop39
140
1.0
102
RTVSPost2010PropOp39
 70
     1
102
RTVSPost2010Prop40
 90
        0
102
RTVSPost2010PropOp40
 70
     1
102
RTVSPost2010Prop41ColorIndex
 90
       18
102
RTVSPost2010Prop41ColorRGB
 90
        0
102
RTVSPost2010PropOp41
 70
     1
102
RTVSPost2010Prop42
 90
       50
102
RTVSPost2010PropOp42
 70
     1
102
RTVSPost2010Prop43
 90
        3
102
RTVSPost2010PropOp43
 70
     1
102
RTVSPost2010Prop44ColorIndex
 90
        5
102
RTVSPost2010Prop44ColorRGB
 90
      255
102
RTVSPost2010PropOp44
 70
     1
102
RTVSPost2010Prop45
280
     0
102
RTVSPost2010PropOp45
 70
     1
102
RTVSPost2010Prop46
 90
       50
102
RTVSPost2010PropOp46
 70
     1
102
RTVSPost2010Prop47
 90
       50
102
RTVSPost2010PropOp47
 70
     1
102
RTVSPost2010Prop48
 90
       50
102
RTVSPost2010PropOp48
 70
     1
102
RTVSPost2010Prop49
280
     0
102
RTVSPost2010PropOp49
 70
     1
102
RTVSPost2010Prop50
 90
       50
102
RTVSPost2010PropOp50
 70
     1
102
RTVSPost2010Prop51ColorIndex
 90
      256
102
RTVSPost2010Prop51ColorRGB
 90
-16777216
102
RTVSPost2010PropOp51
 70
     0
102
RTVSPost2010Prop52
140
1.0
102
RTVSPost2010PropOp52
 70
     0
102
RTVSPost2010Prop53
 90
        2
102
RTVSPost2010PropOp53
 70
     1
102
RTVSPost2010Prop54
  1
strokes_ogs.tif
102
RTVSPost2010PropOp54
 70
     1
102
RTVSPost2010Prop55
280
     0
102
RTVSPost2010PropOp55
 70
     1
102
RTVSPost2010Prop56
140
1.0
102
RTVSPost2010PropOp56
 70
     1
102
RTVSPost2010Prop57
140
1.0
102
RTVSPost2010PropOp57
 70
     1
102
RTVSPropertyOp0
 70
     1
102
RTVSPropertyOp1
 70
     1
102
RTVSPropertyOp2
 70
     1
102
RTVSPropertyOp3
 70
     1
102
RTVSPropertyOp4
 70
     1
102
RTVSPropertyOp5
 70
     1
102
RTVSPropertyOp6
 70
     1
102
RTVSPropertyOp7
 70
     1
102
RTVSPropertyOp8
 70
     1
102
RTVSPropertyOp9
 70
     1
102
RTVSPropertyOp10
 70
     1
102
RTVSPropertyOp11
 70
     1
102
RTVSPropertyOp12
 70
     1
102
RTVSPropertyOp13
 70
     1
102
RTVSPropertyOp14
 70
     1
102
RTVSPropertyOp15
 70
     1
102
RTVSPropertyOp16
 70
     1
102
RTVSPropertyOp17
 70
     1
102
RTVSPropertyOp18
 70
     1
102
RTVSPropertyOp19
 70
     1
102
RTVSPropertyOp20
 70
     1
102
RTVSPropertyOp21
 70
     1
102
RTVSPropertyOp22
 70
     1
102
RTVSPropertyOp23
 70
     1
102
RTVSPropertyOp24
 70
     1
102
RTVSPropertyOp25
 70
     1
102
RTVSPropertyOp26
 70
     1
102
RTVSPropertyOp27
 70
     1
102
RTVSPropertyOp28
 70
     1
102
RTVSPropertyOp29
 70
     1
102
RTVSPropertyOp30
 70
     1
102
RTVSPropertyOp31
 70
     1
102
RTVSPropertyOp32
 70
     1
102
RTVSPropertyOp33
 70
     1
102
RTVSPropertyOp34
 70
     1
102
RTVSPropertyOp35
 70
     1
102
RTVSPropertyOp36
 70
     1
102
RTVSPropertyOp37
 70
     1
102
RTVSPropertyOp38
 70
     1
102
RTVSPropertyOp39
 70
     1
102
RTVSPropertyOp40
 70
     1
102
RTVSPropertyOp41
 70
     1
102
RTVSPropertyOp42
 70
     1
102
RTVSPropertyOp43
 70
     1
102
RTVSPropertyOp44
 70
     1
102
RTVSPropertyOp45
 70
     1
102
RTVSPropertyOp46
 70
     1
102
RTVSPropertyOp47
 70
     1
102
RTVSPropertyOp48
 70
     1
102
RTVSPropertyOp49
 70
     1
102
RTVSPropertyOp50
 70
     1
102
RTVSPropertyOp51
 70
     0
102
RTVSPropertyOp52
 70
     0
102
RTVSPropertyOp53
 70
     1
102
RTVSPropertyOp54
 70
     1
102
RTVSPropertyOp55
 70
     1
102
RTVSPropertyOp56
 70
     1
102
RTVSPropertyOp57
 70
     1
102
RTVSPropertyOp58
 70
     1
102
RTVSPropertyOp59
 70
     1
102
RTVSPropertyOp60
 70
     1
102
RTVSPropertyOp61
 70
     1
102
RTVSPropertyOp62
 70
     1
  0
XRECORD
  5
34C
102
{ACAD_REACTORS
330
34B
102
}
330
34B
100
AcDbXrecord
280
     1
102
RTVSPost2010Prop28
280
     0
102
RTVSPost2010PropOp28
 70
     1
102
RTVSPost2010Prop29
280
     1
102
RTVSPost2010PropOp29
 70
     1
102
RTVSPost2010Prop30
280
     1
102
RTVSPost2010PropOp30
 70
     1
102
RTVSPost2010Prop31
280
     0
102
RTVSPost2010PropOp31
 70
     1
102
RTVSPost2010Prop32
280
     0
102
RTVSPost2010PropOp32
 70
     1
102
RTVSPost2010Prop33
280
     0
102
RTVSPost2010PropOp33
 70
     1
102
RTVSPost2010Prop34
280
     0
102
RTVSPost2010PropOp34
 70
     1
102
RTVSPost2010Prop35
280
     0
102
RTVSPost2010PropOp35
 70
     1
102
RTVSPost2010Prop36
280
     0
102
RTVSPost2010PropOp36
 70
     1
102
RTVSPost2010Prop37
 90
       50
102
RTVSPost2010PropOp37
 70
     1
102
RTVSPost2010Prop38
140
0.0
102
RTVSPost2010PropOp38
 70
     1
102
RTVSPost2010Prop39
140
1.0
102
RTVSPost2010PropOp39
 70
     1
102
RTVSPost2010Prop40
 90
        0
102
RTVSPost2010PropOp40
 70
     1
102
RTVSPost2010Prop41ColorIndex
 90
       18
102
RTVSPost2010Prop41ColorRGB
 90
        0
102
RTVSPost2010PropOp41
 70
     1
102
RTVSPost2010Prop42
 90
       50
102
RTVSPost2010PropOp42
 70
     1
102
RTVSPost2010Prop43
 90
        3
102
RTVSPost2010PropOp43
 70
     1
102
RTVSPost2010Prop44ColorIndex
 90
        5
102
RTVSPost2010Prop44ColorRGB
 90
      255
102
RTVSPost2010PropOp44
 70
     1
102
RTVSPost2010Prop45
280
     0
102
RTVSPost2010PropOp45
 70
     1
102
RTVSPost2010Prop46
 90
       50
102
RTVSPost2010PropOp46
 70
     1
102
RTVSPost2010Prop47
 90
       50
102
RTVSPost2010PropOp47
 70
     1
102
RTVSPost2010Prop48
 90
       50
102
RTVSPost2010PropOp48
 70
     1
102
RTVSPost2010Prop49
280
     0
102
RTVSPost2010PropOp49
 70
     1
102
RTVSPost2010Prop50
 90
       50
102
RTVSPost2010PropOp50
 70
     1
102
RTVSPost2010Prop51ColorIndex
 90
      256
102
RTVSPost2010Prop51ColorRGB
 90
-16777216
102
RTVSPost2010PropOp51
 70
     0
102
RTVSPost2010Prop52
140
1.0
102
RTVSPost2010PropOp52
 70
     0
102
RTVSPost2010Prop53
 90
        2
102
RTVSPost2010PropOp53
 70
     1
102
RTVSPost2010Prop54
  1
strokes_ogs.tif
102
RTVSPost2010PropOp54
 70
     1
102
RTVSPost2010Prop55
280
     0
102
RTVSPost2010PropOp55
 70
     1
102
RTVSPost2010Prop56
140
1.0
102
RTVSPost2010PropOp56
 70
     1
102
RTVSPost2010Prop57
140
1.0
102
RTVSPost2010PropOp57
 70
     1
102
RTVSPropertyOp0
 70
     1
102
RTVSPropertyOp1
 70
     1
102
RTVSPropertyOp2
 70
     1
102
RTVSPropertyOp3
 70
     1
102
RTVSPropertyOp4
 70
     1
102
RTVSPropertyOp5
 70
     1
102
RTVSPropertyOp6
 70
     1
102
RTVSPropertyOp7
 70
     1
102
RTVSPropertyOp8
 70
     1
102
RTVSPropertyOp9
 70
     1
102
RTVSPropertyOp10
 70
     1
102
RTVSPropertyOp11
 70
     1
102
RTVSPropertyOp12
 70
     1
102
RTVSPropertyOp13
 70
     1
102
RTVSPropertyOp14
 70
     1
102
RTVSPropertyOp15
 70
     1
102
RTVSPropertyOp16
 70
     1
102
RTVSPropertyOp17
 70
     1
102
RTVSPropertyOp18
 70
     1
102
RTVSPropertyOp19
 70
     1
102
RTVSPropertyOp20
 70
     1
102
RTVSPropertyOp21
 70
     1
102
RTVSPropertyOp22
 70
     1
102
RTVSPropertyOp23
 70
     1
102
RTVSPropertyOp24
 70
     1
102
RTVSPropertyOp25
 70
     1
102
RTVSPropertyOp26
 70
     1
102
RTVSPropertyOp27
 70
     1
102
RTVSPropertyOp28
 70
     1
102
RTVSPropertyOp29
 70
     1
102
RTVSPropertyOp30
 70
     1
102
RTVSPropertyOp31
 70
     1
102
RTVSPropertyOp32
 70
     1
102
RTVSPropertyOp33
 70
     1
102
RTVSPropertyOp34
 70
     1
102
RTVSPropertyOp35
 70
     1
102
RTVSPropertyOp36
 70
     1
102
RTVSPropertyOp37
 70
     1
102
RTVSPropertyOp38
 70
     1
102
RTVSPropertyOp39
 70
     1
102
RTVSPropertyOp40
 70
     1
102
RTVSPropertyOp41
 70
     1
102
RTVSPropertyOp42
 70
     1
102
RTVSPropertyOp43
 70
     1
102
RTVSPropertyOp44
 70
     1
102
RTVSPropertyOp45
 70
     1
102
RTVSPropertyOp46
 70
     1
102
RTVSPropertyOp47
 70
     1
102
RTVSPropertyOp48
 70
     1
102
RTVSPropertyOp49
 70
     1
102
RTVSPropertyOp50
 70
     1
102
RTVSPropertyOp51
 70
     0
102
RTVSPropertyOp52
 70
     0
102
RTVSPropertyOp53
 70
     1
102
RTVSPropertyOp54
 70
     1
102
RTVSPropertyOp55
 70
     1
102
RTVSPropertyOp56
 70
     1
102
RTVSPropertyOp57
 70
     1
102
RTVSPropertyOp58
 70
     1
102
RTVSPropertyOp59
 70
     1
102
RTVSPropertyOp60
 70
     1
102
RTVSPropertyOp61
 70
     1
102
RTVSPropertyOp62
 70
     1
  0
XRECORD
  5
340
102
{ACAD_REACTORS
330
33F
102
}
330
33F
100
AcDbXrecord
280
     1
102
RTVSPost2010Prop28
280
     0
102
RTVSPost2010PropOp28
 70
     1
102
RTVSPost2010Prop29
280
     1
102
RTVSPost2010PropOp29
 70
     1
102
RTVSPost2010Prop30
280
     1
102
RTVSPost2010PropOp30
 70
     1
102
RTVSPost2010Prop31
280
     0
102
RTVSPost2010PropOp31
 70
     1
102
RTVSPost2010Prop32
280
     0
102
RTVSPost2010PropOp32
 70
     1
102
RTVSPost2010Prop33
280
     0
102
RTVSPost2010PropOp33
 70
     1
102
RTVSPost2010Prop34
280
     0
102
RTVSPost2010PropOp34
 70
     1
102
RTVSPost2010Prop35
280
     0
102
RTVSPost2010PropOp35
 70
     1
102
RTVSPost2010Prop36
280
     0
102
RTVSPost2010PropOp36
 70
     1
102
RTVSPost2010Prop37
 90
       50
102
RTVSPost2010PropOp37
 70
     1
102
RTVSPost2010Prop38
140
0.0
102
RTVSPost2010PropOp38
 70
     1
102
RTVSPost2010Prop39
140
1.0
102
RTVSPost2010PropOp39
 70
     1
102
RTVSPost2010Prop40
 90
        0
102
RTVSPost2010PropOp40
 70
     1
102
RTVSPost2010Prop41ColorIndex
 90
       18
102
RTVSPost2010Prop41ColorRGB
 90
        0
102
RTVSPost2010PropOp41
 70
     1
102
RTVSPost2010Prop42
 90
       50
102
RTVSPost2010PropOp42
 70
     1
102
RTVSPost2010Prop43
 90
        3
102
RTVSPost2010PropOp43
 70
     1
102
RTVSPost2010Prop44ColorIndex
 90
        5
102
RTVSPost2010Prop44ColorRGB
 90
      255
102
RTVSPost2010PropOp44
 70
     1
102
RTVSPost2010Prop45
280
     0
102
RTVSPost2010PropOp45
 70
     1
102
RTVSPost2010Prop46
 90
       50
102
RTVSPost2010PropOp46
 70
     1
102
RTVSPost2010Prop47
 90
       50
102
RTVSPost2010PropOp47
 70
     1
102
RTVSPost2010Prop48
 90
       50
102
RTVSPost2010PropOp48
 70
     1
102
RTVSPost2010Prop49
280
     0
102
RTVSPost2010PropOp49
 70
     1
102
RTVSPost2010Prop50
 90
       50
102
RTVSPost2010PropOp50
 70
     1
102
RTVSPost2010Prop51ColorIndex
 90
      256
102
RTVSPost2010Prop51ColorRGB
 90
-16777216
102
RTVSPost2010PropOp51
 70
     0
102
RTVSPost2010Prop52
140
1.0
102
RTVSPost2010PropOp52
 70
     0
102
RTVSPost2010Prop53
 90
        2
102
RTVSPost2010PropOp53
 70
     1
102
RTVSPost2010Prop54
  1
strokes_ogs.tif
102
RTVSPost2010PropOp54
 70
     1
102
RTVSPost2010Prop55
280
     0
102
RTVSPost2010PropOp55
 70
     1
102
RTVSPost2010Prop56
140
1.0
102
RTVSPost2010PropOp56
 70
     1
102
RTVSPost2010Prop57
140
1.0
102
RTVSPost2010PropOp57
 70
     1
102
RTVSPropertyOp0
 70
     1
102
RTVSPropertyOp1
 70
     1
102
RTVSPropertyOp2
 70
     1
102
RTVSPropertyOp3
 70
     1
102
RTVSPropertyOp4
 70
     1
102
RTVSPropertyOp5
 70
     1
102
RTVSPropertyOp6
 70
     1
102
RTVSPropertyOp7
 70
     1
102
RTVSPropertyOp8
 70
     1
102
RTVSPropertyOp9
 70
     1
102
RTVSPropertyOp10
 70
     1
102
RTVSPropertyOp11
 70
     1
102
RTVSPropertyOp12
 70
     1
102
RTVSPropertyOp13
 70
     1
102
RTVSPropertyOp14
 70
     1
102
RTVSPropertyOp15
 70
     1
102
RTVSPropertyOp16
 70
     1
102
RTVSPropertyOp17
 70
     1
102
RTVSPropertyOp18
 70
     1
102
RTVSPropertyOp19
 70
     1
102
RTVSPropertyOp20
 70
     1
102
RTVSPropertyOp21
 70
     1
102
RTVSPropertyOp22
 70
     1
102
RTVSPropertyOp23
 70
     1
102
RTVSPropertyOp24
 70
     1
102
RTVSPropertyOp25
 70
     1
102
RTVSPropertyOp26
 70
     1
102
RTVSPropertyOp27
 70
     1
102
RTVSPropertyOp28
 70
     1
102
RTVSPropertyOp29
 70
     1
102
RTVSPropertyOp30
 70
     1
102
RTVSPropertyOp31
 70
     1
102
RTVSPropertyOp32
 70
     1
102
RTVSPropertyOp33
 70
     1
102
RTVSPropertyOp34
 70
     1
102
RTVSPropertyOp35
 70
     1
102
RTVSPropertyOp36
 70
     1
102
RTVSPropertyOp37
 70
     1
102
RTVSPropertyOp38
 70
     1
102
RTVSPropertyOp39
 70
     1
102
RTVSPropertyOp40
 70
     1
102
RTVSPropertyOp41
 70
     1
102
RTVSPropertyOp42
 70
     1
102
RTVSPropertyOp43
 70
     1
102
RTVSPropertyOp44
 70
     1
102
RTVSPropertyOp45
 70
     1
102
RTVSPropertyOp46
 70
     1
102
RTVSPropertyOp47
 70
     1
102
RTVSPropertyOp48
 70
     1
102
RTVSPropertyOp49
 70
     1
102
RTVSPropertyOp50
 70
     1
102
RTVSPropertyOp51
 70
     0
102
RTVSPropertyOp52
 70
     0
102
RTVSPropertyOp53
 70
     1
102
RTVSPropertyOp54
 70
     1
102
RTVSPropertyOp55
 70
     1
102
RTVSPropertyOp56
 70
     1
102
RTVSPropertyOp57
 70
     1
102
RTVSPropertyOp58
 70
     1
102
RTVSPropertyOp59
 70
     1
102
RTVSPropertyOp60
 70
     1
102
RTVSPropertyOp61
 70
     1
102
RTVSPropertyOp62
 70
     1
  0
XRECORD
  5
358
102
{ACAD_REACTORS
330
357
102
}
330
357
100
AcDbXrecord
280
     1
102
RTVSPost2010Prop28
280
     0
102
RTVSPost2010PropOp28
 70
     1
102
RTVSPost2010Prop29
280
     1
102
RTVSPost2010PropOp29
 70
     1
102
RTVSPost2010Prop30
280
     1
102
RTVSPost2010PropOp30
 70
     1
102
RTVSPost2010Prop31
280
     0
102
RTVSPost2010PropOp31
 70
     1
102
RTVSPost2010Prop32
280
     0
102
RTVSPost2010PropOp32
 70
     1
102
RTVSPost2010Prop33
280
     0
102
RTVSPost2010PropOp33
 70
     1
102
RTVSPost2010Prop34
280
     0
102
RTVSPost2010PropOp34
 70
     1
102
RTVSPost2010Prop35
280
     0
102
RTVSPost2010PropOp35
 70
     1
102
RTVSPost2010Prop36
280
     0
102
RTVSPost2010PropOp36
 70
     1
102
RTVSPost2010Prop37
 90
       50
102
RTVSPost2010PropOp37
 70
     1
102
RTVSPost2010Prop38
140
0.0
102
RTVSPost2010PropOp38
 70
     1
102
RTVSPost2010Prop39
140
1.0
102
RTVSPost2010PropOp39
 70
     1
102
RTVSPost2010Prop40
 90
        0
102
RTVSPost2010PropOp40
 70
     1
102
RTVSPost2010Prop41ColorIndex
 90
       18
102
RTVSPost2010Prop41ColorRGB
 90
        0
102
RTVSPost2010PropOp41
 70
     1
102
RTVSPost2010Prop42
 90
       50
102
RTVSPost2010PropOp42
 70
     1
102
RTVSPost2010Prop43
 90
        3
102
RTVSPost2010PropOp43
 70
     1
102
RTVSPost2010Prop44ColorIndex
 90
        5
102
RTVSPost2010Prop44ColorRGB
 90
      255
102
RTVSPost2010PropOp44
 70
     1
102
RTVSPost2010Prop45
280
     0
102
RTVSPost2010PropOp45
 70
     1
102
RTVSPost2010Prop46
 90
       50
102
RTVSPost2010PropOp46
 70
     1
102
RTVSPost2010Prop47
 90
       50
102
RTVSPost2010PropOp47
 70
     1
102
RTVSPost2010Prop48
 90
       50
102
RTVSPost2010PropOp48
 70
     1
102
RTVSPost2010Prop49
280
     0
102
RTVSPost2010PropOp49
 70
     1
102
RTVSPost2010Prop50
 90
       50
102
RTVSPost2010PropOp50
 70
     1
102
RTVSPost2010Prop51ColorIndex
 90
      256
102
RTVSPost2010Prop51ColorRGB
 90
-16777216
102
RTVSPost2010PropOp51
 70
     0
102
RTVSPost2010Prop52
140
1.0
102
RTVSPost2010PropOp52
 70
     0
102
RTVSPost2010Prop53
 90
        2
102
RTVSPost2010PropOp53
 70
     1
102
RTVSPost2010Prop54
  1
strokes_ogs.tif
102
RTVSPost2010PropOp54
 70
     1
102
RTVSPost2010Prop55
280
     0
102
RTVSPost2010PropOp55
 70
     1
102
RTVSPost2010Prop56
140
1.0
102
RTVSPost2010PropOp56
 70
     1
102
RTVSPost2010Prop57
140
1.0
102
RTVSPost2010PropOp57
 70
     1
102
RTVSPropertyOp0
 70
     1
102
RTVSPropertyOp1
 70
     1
102
RTVSPropertyOp2
 70
     1
102
RTVSPropertyOp3
 70
     1
102
RTVSPropertyOp4
 70
     1
102
RTVSPropertyOp5
 70
     1
102
RTVSPropertyOp6
 70
     1
102
RTVSPropertyOp7
 70
     1
102
RTVSPropertyOp8
 70
     1
102
RTVSPropertyOp9
 70
     1
102
RTVSPropertyOp10
 70
     1
102
RTVSPropertyOp11
 70
     1
102
RTVSPropertyOp12
 70
     1
102
RTVSPropertyOp13
 70
     1
102
RTVSPropertyOp14
 70
     1
102
RTVSPropertyOp15
 70
     1
102
RTVSPropertyOp16
 70
     1
102
RTVSPropertyOp17
 70
     1
102
RTVSPropertyOp18
 70
     1
102
RTVSPropertyOp19
 70
     1
102
RTVSPropertyOp20
 70
     1
102
RTVSPropertyOp21
 70
     1
102
RTVSPropertyOp22
 70
     1
102
RTVSPropertyOp23
 70
     1
102
RTVSPropertyOp24
 70
     1
102
RTVSPropertyOp25
 70
     1
102
RTVSPropertyOp26
 70
     1
102
RTVSPropertyOp27
 70
     1
102
RTVSPropertyOp28
 70
     1
102
RTVSPropertyOp29
 70
     1
102
RTVSPropertyOp30
 70
     1
102
RTVSPropertyOp31
 70
     1
102
RTVSPropertyOp32
 70
     1
102
RTVSPropertyOp33
 70
     1
102
RTVSPropertyOp34
 70
     1
102
RTVSPropertyOp35
 70
     1
102
RTVSPropertyOp36
 70
     1
102
RTVSPropertyOp37
 70
     1
102
RTVSPropertyOp38
 70
     1
102
RTVSPropertyOp39
 70
     1
102
RTVSPropertyOp40
 70
     1
102
RTVSPropertyOp41
 70
     1
102
RTVSPropertyOp42
 70
     1
102
RTVSPropertyOp43
 70
     1
102
RTVSPropertyOp44
 70
     1
102
RTVSPropertyOp45
 70
     1
102
RTVSPropertyOp46
 70
     1
102
RTVSPropertyOp47
 70
     1
102
RTVSPropertyOp48
 70
     1
102
RTVSPropertyOp49
 70
     1
102
RTVSPropertyOp50
 70
     1
102
RTVSPropertyOp51
 70
     0
102
RTVSPropertyOp52
 70
     0
102
RTVSPropertyOp53
 70
     1
102
RTVSPropertyOp54
 70
     1
102
RTVSPropertyOp55
 70
     1
102
RTVSPropertyOp56
 70
     1
102
RTVSPropertyOp57
 70
     1
102
RTVSPropertyOp58
 70
     1
102
RTVSPropertyOp59
 70
     1
102
RTVSPropertyOp60
 70
     1
102
RTVSPropertyOp61
 70
     1
102
RTVSPropertyOp62
 70
     1
  0
ENDSEC
  0
EOF
